I Want To Hold Your Hand

Beatles

 CDCDCD
-------------------------------------------------------------------------

-------------------------------------------------------------------------
-----------------------------------------------------5(7)-5(7)-5(7)-5(7)-
-5-5--7--7--7----5-5--7--7--7---5-5--7--7--7-7-7-7-7---------------------
-3-3--5--5--5----3-3--5--5--5---3-3--5--5--5-5-5-5-5---------------------
-------------------------------------------------------------------------
Verse:
guitars follow this pattern:
 GD7
-------------------------------------------------

-------------------------------------------------
-------------------------------------------------
--------------------------7--7--9--7--7--7--9--7-
-5--5--7--5--5--5--7--5---5--5--5--5--5--5--5--5-
-3--3--3--3--3--3--3--3--------------------------
guitar 2 riff played between D7 and Em
----------------

----------------
----------------
----------------
-5--4--5--6---7-
----------------
Outro:
 CG
---------------------3-

---------------------3-
---------------------0-
----2--0------2--0---0-
-3---------3---------2-
---------------------3-
Lyrics:
 GD7EmB7
Oh, yeah, I'll tell you something, I think you'll understand,
 GD7EmB7
When I say that something   I want to hold your hand!
 CD7GEmCD7G
 I want to hold your hand!    I want to hold your hand!
 GD7EmB7
Oh, please, say to me,    you'll let me be your man,
 EmGD7EmB7
 And please, say to me,    you'll let me hold your hand.
 CD7GEmCD7G
 Now let me hold your hand,    I want to hold your hand!
 G7CAm
    And when I touch you I feel happy inside,
 Dm7G7CD
    It's such a feeling that my love I can't hide,
 CDCD
    I can't hide, I can't hide.
 GD7EmB7
Yeah you, got that something,    I think you'll understand.
 EmGD7EmB7
 When I feel that someting,    I want to hold your hand!
 CDGEmCD7G
 I want to hold your hand!      I want to hold your hand!


Corrected by emsterHP. View original
Am B7 C D D7 Dm7 Em G G7
variations - click chord images
Transpose chords:
Tuning:
Cool service:
View: Size:
A  A  A
Rating:
Layout:
  • Currently 3.2/5 Stars.
  • 1
  • 2
  • 3
  • 4
  • 5
 
Accuracy:
  • Currently 3.4/5 Stars.
  • 1
  • 2
  • 3
  • 4
  • 5
 
click stars to rate
Chordie recommends:
Get acoustic guitar lessons and electric guitar lessons at JamPlay.com
Songbook:
Login to add this song to your songbook
Support the artist
Preview/buy this song
MSN Music
Why this non-profit ad?

 
login to add comments/video/corrections