"yes"; ?> Lady Madonna by Beatles - guitar chords, guitar tabs and lyrics - chordie

Lady Madonna

Beatles

E|---------------------------------|

B|---------------------------------|

G|-----------------------------2---|

D|-----------------0---0---3-4-----|

A|-0---0---3---4-------------------|

E|---------------------------------|

E|---------------------------------|--------------------------------

B|---------------------------------|--------------------------------

G|---------------------------------|--------------------------------

D|-----------------0---0---2---2---|-3---3---5---5---7--------------

A|-0---0---3---4-------------------|--------------------------------

E|---------------------------------|--------------------------------


 ADAD
Lady       Madonna     Children at your feet
(Riff 2)
 ADFGA
Wonder how you manage to make ends meet 
(Riff 1) (Riff 1)
 ADAD
Who finds the money    When you pay the rent
(Riff 2)
 ADFGA
Did you think that money was hea-ven sent?
Chorus:
 Dm7G7
Friday night arrives without a suitcase
 CAm7
Sunday evening creeping like a nun
 Dm7G7
Monday's child has learned to tie his bootlace
 CBm7E7
See  how  they  run
Verse 2:
(Riff 1) (Riff 1)
 ADAD
Lady       Madonna     Baby at your breast
(Riff 2)
 ADFGA
Wonder how you manage to feed the rest 
Instrumental Break:
(Riff 1) (Riff 1)
 ADAD
 (Riff 1)              (Riff 1) 
 ADAD
 (Riff 2)   
 ADFGA
                                     Sax Solo:
 Dm7G7CAm7Dm7G7CBm7E7
                                                                                                                  See  how  they  run
Verse 3:
(Riff 1) (Riff 1)
 ADAD
Lady     Madonna     Lying on the bed
(Riff 2)
 ADFGA
Listen to the music playing in your head 
Instrumental Break:
(Riff 1) (Riff 1)
 ADAD
 (Riff 1)              (Riff 1) 
 ADAD
 (Riff 2)   
 ADFGA
                                     Chorus:
 Dm7G7
Tuesday afternoon is never-ending
 CAm7
Wednesday morning papers didn't come
 Dm7G7
Thursday night your stockings needed mending
 CBm7E7
See  how  they  run
Coda:
(Riff 1) (Riff 1)
 ADAD
Lady       Madonna     Children at your feet
(Riff 2)
 ADFGA
Wonder how you manage to make ends meet 
 AG/BCmG/BAAG/BCmG/BA
-----------------------------------------------------------------

| Tabbed By the Beatles Central Team (jpgr_beatles@yahoo.com) |
| Visit Beatles Central for every major release by The Beatles |
| in MIDI and Tab form (over 250 songs), as well as biographies.|
| http://members.tripod.com/~jpgr_beatles/index.html |
-----------------------------------------------------------------



A Am7 Bm7 C Cm D Dm7 E7 F G G/B G7
variations - click chord images
Transpose chords:
Tuning:
Cool service:
View: Size:
A  A  A
Rating:
Layout:
  • Currently 2.9/5 Stars.
  • 1
  • 2
  • 3
  • 4
  • 5
 
Accuracy:
  • Currently 2.8/5 Stars.
  • 1
  • 2
  • 3
  • 4
  • 5
 
click stars to rate
Chordie recommends:
Learn to play songs at Jamplay.com with video guitar lessons
Songbook:
Login to add this song to your songbook
Support the artist
Preview/buy this song
MSN Music
Why this non-profit ad?

 
login to add comments/video/corrections