""; ?> Sgt. Pepper's Lonely Hearts Club Band by Beatles - guitar chords, guitar tabs and lyrics - chordie

Sgt. Pepper's Lonely Hearts Club Band

Beatles

 A7
E|---------------------------------|--------------------------------
B|-------------------8-10----------|-------------------8-10---------
G|----------------/9---------------|----------------/9--------------
D|---------------------------------|--------------------------------
A|---------------------------------|--------------------------------
E|---------------------------------|--------------------------------

^ ^ ^ ^ ^ ^ ^ ^
 C7G7
E|-----------------8---10----------|--------------------------------
B|-----------8-10----------8p6--8--|--------------------------------
G|--------/9-----------------------|-7-------4\---------------------
D|---------------------------------|---------3\---------------------
A|---------------------------------|---------5\---------------------
E|---------------------------------|---------3\---------------------

^ ^ ^ ^ ^ ^ ^ ^
Verse 1:
 G7A7
It was twenty years ago today 
 C7G7
Sergeant Pepper taught the band to play 
 G7A7
They've been going in and out of style 
 C7G7
But they're guaranteed to raise a smile 
 A7
So may I introduce to you
 C7
The act you've known for all these years
 G7C7G7
 Sergeant Pepper's Lonely Heart's Club Band 
Trumpet Solo:
 C7F7C7D7
                                                                  Chorus:
 GBbC7G
We're Sergeant Pepper's Lonely Heart's Club Band 
 C7G7
We hope you will enjoy the show 
 GBbC7G
 Sergeant Pepper's Lonely Heart's Club Band 
 A7D7
Sit back and let the evening go 
Bridge:
 C7
 Sergeant Pepper's Lonely
 G7
 Sergeant Pepper's Lonely
 A7
 Sergeant Pepper's Lonely
 C7G7
 Heart's Club Band
 C7
It's wonderful to be here
 F7
It's certainly a thrill
 C7
You're such a lovely audience
 D7
We'd  like to take you home with us
We'd love to take you home
Verse 2:
 G7A7
I don't really wanna stop the show 
 C7G7
But I thought you might like to know 
 G7A7
That the singer's gonna sing a song 
 C7G7
And he wants you all to sing along 
 A7
So may I introduce to you
 C7
The one and only Billy Shears
 G7C7G7
 Sergeant Pepper's Lonely Heart's Club Band 
 C7
 (Segue into "With A Little Help from My Friends")
-----------------------------------------------------------------

| Tabbed By the Beatles Central Team (jpgr_beatles@yahoo.com) |
| Visit Beatles Central for every major release by The Beatles |
| in MIDI and Tab form (over 250 songs), as well as biographies.|
| http://members.tripod.com/~jpgr_beatles/index.html |
-----------------------------------------------------------------



A7 Bb C7 D7 F7 G G7
variations - click chord images
Transpose chords:
Tuning:
Cool service:
View: Size:
A  A  A
Rating:
Layout:
  • Currently 2.9/5 Stars.
  • 1
  • 2
  • 3
  • 4
  • 5
 
Accuracy:
  • Currently 2.7/5 Stars.
  • 1
  • 2
  • 3
  • 4
  • 5
 
click stars to rate
Chordie recommends:
Learn how to play guitar at JamPlay.com
Songbook:
Login to add this song to your songbook
Support the artist
Preview/buy this song
MSN Music
Why this non-profit ad?

 
login to add comments/video/corrections