Sgt. Pepper's Lonely Hearts Club Band (Reprise)

Beatles

 FAb
We're Sergeant Pepper's Lonely Heart's
 BbFBb
 Club Band     We hope you will enjoy the show
Fill:
 F
-|----------------------------
-|----------------------------
-|--10--8---------------------
-|---------10p9--8-----6------
-|----------------------------
-|----------------------------

 FAb
We're Sergeant Pepper's Lonely Heart's
 BbFG
 Club Band     We're sorry but it's time to go
Fill:
 C
-|----------------------------
-|--11b13r11-----8------------
-|----------------------------
-|----------------------------
-|----------------------------
-|----------------------------

 Bb
 Sergeant Pepper's Lonely  Ser-
 F
 geant Pepper's Lonely Ser-
 G
 geant Pepper's Lonely Ser-
 D
 geant Pepper's Lonely Ser-
 GBb
 geant Pepper's Lonely
 CG
Heart's Club Band    We'd
 C
 Like to thank you once again
Fill:
 G
-|----------------------------
-|--8p6--8---8p6--8---8p6--8--
-|----------------------------
-|----------------------------
-|----------------------------
-|----------------------------

 GBbC
 Sergeant Pepper's one and only Lonely Heart's
 GA
Club Band     It's getting very near the end
Fill:
 G
-|--10r8--10r8---5------------
-|----------------------------
-|----------------------------
-|----------------------------
-|----------------------------
-|----------------------------

 C
  Sergeant Pepper's Lonely  Ser-
 G
 geant Pepper's Lonely Ser-
 A
 geant Pepper's Lonely
 C
Heart's_____   Club_____
 G
 Band____
End lick:
 GBb
-|----------------------------|------------------------------
-|----------------------------|-----------3------6-----------
-|-----------------3----------|-----5b7----------------------
-|-----3---5---3--------------|------------------------------
-|----------------------------|------------------------------
-|----------------------------|------------------------------

 CG
-|-----6b8r6---6b8b6---3------|--13b15------------------------
-|----------------------------|------------------------------
-|----------------------------|------------------------------
-|----------------------------|------------------------------
-|----------------------------|------------------------------
-|----------------------------|------------------------------

This song leads directly into "A Day in the Life"
-------------------------------------------------------------------------

Tab Special Notations:
----0----  play the open string ('fret zero')
----5----  play fret five
----5~---  play fret five with vibrato
---5/7---  play fret five, slide up to fret seven
---7\5---  play fret seven, slide down to fret five

--8b(9)-- play fret eight, bend the string (at fret eight) to reach
the pitch of fret nine
--b(9)8-- play fret eight already bent to the pitch of fret nine,
unbending until it reaches the normal pitch of fret eight
----h7---  hammer-on to fret seven
----p5---  pull-off to fret five
---/7----  slide up to fret 7 (the starting fret of the slide is

undefined, judge by ear)
---15\---  play fret 15, slide down (the ending fret of the slide is

undefined, judge by ear)
---0h3---  play the open string and immediately hammer-on to fret

three
---7p5---  play fret seven and immediately pull-off to fret five

==============================================================================
I Transcribed by the Beatles Central Team I
I jpgr_beatles@yahoo.com I
I Visit Beatles Central for more great Beatles tabs and midis(220+ each). I
I Every album covered! http://members.tripod.com/jpgr_beatles/index.html I
==============================================================================


A Ab Bb C D F G
variations - click chord images
Transpose chords:
Tuning:
Cool service:
View: Size:
A  A  A
Rating:
Layout:
  • Currently 2.2/5 Stars.
  • 1
  • 2
  • 3
  • 4
  • 5
 
Accuracy:
  • Currently 2.5/5 Stars.
  • 1
  • 2
  • 3
  • 4
  • 5
 
click stars to rate
Chordie recommends:
Learn how to play guitar at JamPlay.com
Songbook:
Login to add this song to your songbook
Support the artist
Preview/buy this song
MSN Music
Why this non-profit ad?

 
login to add comments/video/corrections