Julia

Beatles

 EADGBEEADGBEEADGBEEADGBEEADGBE
 332010     002213     022003     320033     353333
 C/GAm7/EEmGGm7EADGBEEADGBEEADGBEEADGBEEADGBE353335575655131213131114224432Gm9A7F9Fm7Bm/F#EADGBEEADGBEEADGBEEADGBEEADGBE
                                                                                                                                                   002212     022030     022020     022010     332000
 Am6/EEm7Em6Emadd#5Cmaj7/G
                                    To get the picking pattern in your head, I'll give a brief
explanation.
The key to it is the movement of the thumb. The thumb picks out
the notes on the E, A and D strings. For each chord played, the
order of strings which the thumb picks is the same - it goes
like this :
 ADED
         While the thumb gets on with this, use your other fingers to
fill in the notes on the top strings.
If you try it a few times, slowly, you should pick up the natural
rhythm which the picking pattern has.
Then, just practice !
I've tabbed the song out in full, although you'll soon realise
that a lot of it is very similar with certain sections being
repeated here and there.
 C/GAm7/EEm
E----3---------------3---------------3---------------3----------------
B--------------1---------------1---------------0---------------0------
G----------0---------------2---------------0---------------0----------
D--------2-------2-------2-------2-------2-------2-------2-------2----
A----3---------------0---------------2---------------2----------------
E------------3---------------0---------------0---------------0--------

Half of what I say is meaning-less
 C/GAm7/EEmG
E----3---------------3---------------3---------------3----------------
B--------------1---------------1---------------0---------------0------
G----------0---------------2---------------0---------------0----------
D--------2-------2-------2-------2-------2-------2-------0-------0----
A----3---------------0---------------2---------------2----------------
E------------3---------------0---------------0---------------3--------

But I say it just to reach you Ju - lia
 C/GAm7/EGm7Gm9
E----3---------------3---------------3---------------5----------------
B--------------1---------------1---------------3---------------3------
G----------0---------------2---------------3---------------3----------
D--------2-------2-------2-------2-------3-------3-------3-------3----
A----3---------------0---------------5---------------5----------------
E------------3---------------0---------------3---------------3--------

Ju - lia Ju - lia
 A7F9Fm7
E----5---------------5---------------3---------------4----------------
B--------------5---------------5---------------1---------------1------
G----------6---------------6---------------2---------------1----------
D--------5-------5-------5-------5-------1-------1-------1-------1----
A----7---------------7---------------3---------------3----------------
E------------5---------------5---------------1---------------1--------

O - cean child calls me
 C/GAm7/EEmG
E----3---------------3---------------3---------------3----------------
B--------------1---------------1---------------0---------------0------
G----------0---------------2---------------0---------------0----------
D--------2-------2-------2-------2-------2-------2-------0-------0----
A----3---------------0---------------2---------------2----------------
E------------3---------------0---------------0---------------3--------

So I sing a song of love Ju - lia
 C/GAm7/EGm7Gm9
E----3---------------3---------------3---------------5----------------
B--------------1---------------1---------------3---------------3------
G----------0---------------2---------------3---------------3----------
D--------2-------2-------2-------2-------3-------3-------3-------3----
A----3---------------0---------------5---------------5----------------
E------------3---------------0---------------3---------------3--------

Ju - lia sea shell eyes
 A7F9Fm7
E----5---------------5---------------3---------------4----------------
B--------------5---------------5---------------1---------------1------
G----------6---------------6---------------2---------------1----------
D--------5-------5-------5-------5-------1-------1-------1-------1----
A----7---------------7---------------3---------------3----------------
E------------5---------------5---------------1---------------1--------

win - dy smile calls me
 C/GAm7/EEmG
E----3---------------3---------------3---------------3----------------
B--------------1---------------1---------------0---------------0------
G----------0---------------2---------------0---------------0----------
D--------2-------2-------2-------2-------2-------2-------0-------0----
A----3---------------0---------------2---------------2----------------
E------------3---------------0---------------0---------------3--------

So I sing a song of love Ju - lia
E----3---------------3----------------------------------------
B--------------1---------------1------------------------------
G----------0---------------0----------------------------------
D--------2-------2-------2--------2---------------------------
A----3---------------3----------------------------------------
E------------3---------------3--------------------------------

Middle 8
---------

 Bm/F#C/G
E---2---------------2---------------3---------------3--------------
B-------------3---------------3---------------1---------------1----
G---------4---------------4---------------0---------------0--------
D-------4-------4-------4-------4-------2-------2-------2-------2--
A---2---------------2---------------3---------------3--------------
E-----------2---------------2---------------3---------------3------

her hair of floating sky is shimmering
 Am7/EAm6/EEm7Em6
E---3---------------2------------------------------------------------
B-------------1---------------1------3---------3-----2---------2-----
G---------2---------------2----------------0---------------0---------
D-------2-------2-------2-------2--------2-------2-------2-------2---
A---0---------------0----------------2---------------2---------------
E-----------0---------------0----------------0---------------0-------

glimmering in the sun
 Emadd#5Em
E----------------------------------------------------------------
B---1---------1-----0---------0----------------------------------
G---------0---------------0--------------------------------------
D-------2-------2-------2-------2--------------------------------
A---2---------------2--------------------------------------------
E-----------0---------------0------------------------------------

 C/GAm7/EGm7Gm9
E----3---------------3---------------3---------------5---------------
B--------------1---------------1---------------3---------------3-----
G----------0---------------2---------------3---------------3---------
D--------2-------2-------2-------2-------3-------3-------3-------3---
A----3---------------0---------------5---------------5---------------
E------------3---------------0---------------3---------------3-------

Ju - lia Ju - lia
 A7F9Fm7
E----5---------------5---------------3---------------4--------------
B--------------5---------------5---------------1---------------1----
G----------6---------------6---------------2---------------1--------
D--------5-------5-------5-------5-------1-------1-------1-------1--
A----7---------------7---------------3---------------3--------------
E------------5---------------5---------------1---------------1------

mor - ning moon touch me
 C/GAm7/EEmG
E----3---------------3---------------3---------------3---------------
B--------------1---------------1---------------0---------------0-----
G----------0---------------2---------------0---------------0---------
D--------2-------2-------2-------2-------2-------2-------0-------0---
A----3---------------0---------------2---------------2---------------
E------------3---------------0---------------0---------------3-------

So I sing a song of love Ju - lia
 C/GAm7/E
E----3---------------3-----------------3---------------3--------------
B--------------1---------------1-----------------1---------------1----
G----------0---------------0-----------------0---------------2--------
D--------2-------2-------2--------2--------2-------2-------2--------2-
A----3---------------3-----------------3---------------0--------------
E------------3---------------3-----------------3---------------0------

when I cannot sing my heart
 EmC/GAm7/E
E---3---------------3---------------3---------------3-----------------
B-------------0---------------0---------------1---------------1-------
G---------0---------------0---------------0---------------2-----------
D-------2-------2-------2-------2-------2-------2-------2-------2-----
A---2---------------2---------------3---------------0-----------------
E-----------0---------------0---------------3---------------0---------

I can only speak my mind
 EmG
E---3---------------3----------------------|
B-------------0---------------0------------|
G---------0---------------0----------------|
D-------2-------2-------0-------0----------|
A---2---------------2----------------------|
E------------0---------------3-------------|

Ju - lia
 C/GAm7/EGm7Gm9
E----3---------------3---------------3---------------5--------------
B--------------1---------------1---------------3---------------3----
G----------0---------------2---------------3---------------3--------
D--------2-------2-------2-------2-------3-------3-------3-------3--
A----3---------------0---------------5---------------5--------------
E------------3---------------0---------------3---------------3------

Ju - lia sleep - ing sand
 A7F9Fm7
E----5---------------5---------------3---------------4---------------
B--------------5---------------5---------------1---------------1-----
G----------6---------------6---------------2---------------1---------
D--------5-------5-------5-------5-------1-------1-------1-------1---
A----7---------------7---------------3---------------3---------------
E------------5---------------5---------------1---------------1-------

si - lent cloud touch me
 C/GAm7/EEmG
E----3---------------3---------------3---------------3---------------
B--------------1---------------1---------------0---------------0-----
G----------0---------------2---------------0---------------0---------
D--------2-------2-------2-------2-------2-------2-------0-------0---
A----3---------------0---------------2---------------2---------------
E------------3---------------0---------------0---------------3-------

So I sing a song of love Ju - lia
Instrumental
-------------

 C/GAm7/EGm7Gm9
E----3---------------3---------------3---------------5---------------
B--------------1---------------1---------------3---------------3-----
G----------0---------------2---------------3---------------3---------
D--------2-------2-------2-------2-------3-------3-------3-------3---
A----3---------------0---------------5---------------5---------------
E------------3---------------0---------------3---------------3-------

 A7F9Fm7
E----5---------------5---------------3---------------4----------------
B--------------5---------------5---------------1---------------1------
G----------6---------------6---------------2---------------1----------
D--------5-------5-------5-------5-------1-------1-------1-------1----
A----7---------------7---------------3---------------3----------------
E------------5---------------5---------------1---------------1--------

Outtro
-------

 C/GAm7/EEmC/G
E----3---------------3---------------3---------------3---------------
B--------------1---------------1---------------0---------------1-----
G----------0---------------2---------------0---------------0---------
D--------2-------2-------2-------2-------2-------2-------2-------0---
A----3---------------0---------------2---------------3---------------
E------------3---------------0---------------0---------------3-------

So I sing a song of love Ju - lia
 EmC/GEmG
E----3---------------3---------------3---------------3--------------
B-------------0---------------1----------------0---------------3----
G----------0---------------0---------------0---------------0--------
D--------2-------2-------2-------0-------2-------2-------0-------0--
A----2---------------3---------------2---------------2--------------
E-----------0---------------3----------------0---------------3------

Ju - lia Ju - lia
 Cmaj7/G
E---------0---------------------
B--------0----------------------
G-------0-----------------------
D------2------------------------
A-----3-------------------------
E----3--------------------------



A A7 Am6/E Am7/E Bm/F# C/G Cmaj7/G D E Em Em6 Em7 F9 Fm7 G Gm7 Gm9
variations - click chord images
Transpose chords:
Tuning:
Cool service:
View: Size:
A  A  A
Rating:
Layout:
  • Currently 3.5/5 Stars.
  • 1
  • 2
  • 3
  • 4
  • 5
 
Accuracy:
  • Currently 0/5 Stars.
  • 1
  • 2
  • 3
  • 4
  • 5
 
click stars to rate
Chordie recommends:
Get acoustic guitar lessons and electric guitar lessons at JamPlay.com
Songbook:
Login to add this song to your songbook
Support the artist
Preview/buy this song
MSN Music
Why this non-profit ad?

 
login to add comments/video/corrections