"yes"; ?> Devil In Her Heart by Beatles - guitar chords, guitar tabs and lyrics - chordie

Devil In Her Heart

Beatles

 Am7D7
E|-------8----7----5-----------3---|-5----5----3--------------------
B|-------10---8----7-----------5---|-7----7----5-----7----5----3----
G|---------------------------------|-----------------7----5----4----
D|---------------------------------|--------------------------------
A|---------------------------------|--------------------------------
E|---------------------------------|--------------------------------

^ ^ ^ ^ ^ ^ ^ ^
 G
E|---------------------------------|
B|---------3---5---3---3---2---1---|
G|---------4---5---4---4---3---2---|
D|---------------------------------|
A|---------------------------------|
E|---------------------------------|

^ ^ ^ ^
Chorus:
 Am7
She's got the devil in her heart
 D7G
    But her eyes they tantalize
 Am7
She's gonna tear your heart apart
 D7G
    Oh her lips are really thrilling
Fill 1:
 G7
E|---------------------------------|
B|---------0---0---1---1---3---3---|
G|---------0---0---2---2---4---4---|
D|---------------------------------|
A|---------------------------------|
E|---------------------------------|

^ ^ ^ ^
Verse 1:
 CCmG
 I'll take my chances    for romance is 
 G7
So important to me   (Fill 1)
 CCmA7
 She'll never hurt me    she won't desert me 
 D7
She's an angel sent to me
Chorus:
 Am7
She's got the devil in her heart     no
 D7G
 no this I can't believe
 Am7
She's gonna tear your heart apart
 D7G
    No no nay will she deceive  (Fill 1)
Verse 2:
 CCm
 I can't believe that she'll ever ever go
 GG7
 Not when she hugs and says she loves me so  (Fill 1)
 CCmA7
 She'll never hurt me    she won't desert me 
 D7
Listen can't you see?
Chorus:
 Am7
She's got the devil in her heart  oh no no
 D7G
 no   this I can't believe
 Am7
She's gonna tear your heart apart
 D7G
    No no nay will she deceive  (Fill 1)
Verse 3:
 CCm
 Don't take chances    if your romance is
 GG7
 So important to you (Fill 1)
 CCmA7
 She'll never hurt me    she won't desert me 
 D7
She's an angel sent to me
Chorus:
 Am7
She's got the devil in her heart  oh no no
 D7G
 no no this I can't believe
 Am7
She's gonna tear your heart apart
 D7G
    No no nay will she deceive
Coda:
(Play intro figure over the Am7 D7 and G chords)
 Am7
She's got the devil in her heart
 D7G
 No she's an angel sent to me
 Am7
She's got the devil in her heart
 D7G
 No she's an angel sent to me
Finish the song by strumming this chord:
G10
E|----10---------------------------|
B|----10---------------------------|
G|----9----------------------------|
D|----9----------------------------|
A|----10---------------------------|
E|---------------------------------|
-----------------------------------------------------------------

| Tabbed By the Beatles Central Team (jpgr_beatles@yahoo.com) |
| Visit Beatles Central for every major release by The Beatles |
| in MIDI and Tab form (over 250 songs), as well as biographies.|
| http://members.tripod.com/~jpgr_beatles/index.html |
-----------------------------------------------------------------



A7 Am7 C Cm D7 G G7
variations - click chord images
Transpose chords:
Tuning:
Cool service:
View: Size:
A  A  A
Rating:
Layout:
  • Currently 2.2/5 Stars.
  • 1
  • 2
  • 3
  • 4
  • 5
 
Accuracy:
  • Currently 2.6/5 Stars.
  • 1
  • 2
  • 3
  • 4
  • 5
 
click stars to rate
Chordie recommends:
Learn to play guitar with video-based, online guitar lessons at JamPlay.com
Songbook:
Login to add this song to your songbook
Support the artist
Preview/buy this song
MSN Music
Why this non-profit ad?

 
login to add comments/video/corrections