Guitar Tabs, Chords and Lyrics
Major upgrade!! After one year development the new version of Chordie is now online! Please give feedback.


Hold Me Tight  The Beatles

TAB: Hold Me Tight
MUSIC BY: The Beatles (From the With the Beatles album)
TABBED BY: The Beatles Central Team (jpgr_beatles@yahoo.com)
Intro:
[F] It [C7]feels alright now
 
 E|---------------------------------|--------------------------------
 B|---------------------------------|--------------------------------
 G|---------------------------------|--------------------------------
 D|---------------------------------|-2-------2-------2-------2------
 A|-----------------3---3-----------|-3-------3-------3-------3------
 E|-1---1---4---5-----------5---1---|--------------------------------

^ ^ ^ ^ ^ ^ ^ ^
Verse 1:
[F]Hold me tight [Bb7]
 
 E|---------------------------------|--------------------------------
 B|---------------------------------|--------------------------------
 G|---------------------------------|--------------------------------
 D|---------------------------------|-----------------6---6----------
 A|-----------------3---3-----------|---------4---5---8---8---5------
 E|-1---1---4---5-----------5---1---|-/6--6-----------------------1--

^ ^ ^ ^ ^ ^ ^ ^
[G7]Tell me I'm the [C7]only one, and
 
 E|---------------------------------|--------------------------------
 B|---------------------------------|--------------------------------
 G|---------------------------------|-----------------3---3----------
 D|---------------------------------|---------1---2---5---5---5------
 A|---------1---2---5---5---1---2---|-3---3-----------------------3--
 E|-/3--3---------------------------|--------------------------------

^ ^ ^ ^ ^ ^ ^ ^
[F]then, I might[Bb7]
 
 E|---------------------------------|--------------------------------
 B|---------------------------------|--------------------------------
 G|---------------------------------|--------------------------------
 D|---------------------------------|-----------------6---6----------
 A|-----------------3---3-----------|---------4---5---8---8---5------
 E|-1---1---4---5-----------5---1---|-/6--6-----------------------1--

^ ^ ^ ^ ^ ^ ^ ^
[G7]Never be the [C7]lonely one, so
 
 E|---------------------------------|--------------------------------
 B|---------------------------------|--------------------------------
 G|---------------------------------|-----------------3---3----------
 D|---------------------------------|---------1---2---5---5---5------
 A|---------1---2---5---5---1---2---|-3---3-----------------------3--
 E|-/3--3---------------------------|--------------------------------

^ ^ ^ ^ ^ ^ ^ ^
[F]Hold me tight [F7] tonight
 
 E|---------------------------------|--------------------------------
 B|---------------------------------|--------------------------------
 G|---------------------------------|--------------------------------
 D|---------------------------------|---------------------------------
 A|-----------------3---3-----------|-----------------3---3----------
 E|-1---1---4---5-----------4---5---|-1---1---4---5-----------4---5--

^ ^ ^ ^ ^ ^ ^ ^
[Bb] tonight [Bbm] It's
 
 E|---------------------------------|--------------------------------
 B|---------------------------------|--------------------------------
 G|---------------------------------|--------------------------------
 D|-3---3---3---3---3---3---3---3---|-3---3---3---3---3---3---3---3--
 A|-1---1---1---1---1---1---1---1---|-1---1---1---1---1---1---1---1--
 E|---------------------------------|--------------------------------

^ ^ ^ ^ ^ ^ ^ ^
[F]you [Bbm] You you
 
 E|---------------------------------|--------------------------------
 B|---------------------------------|--------------------------------
 G|---------------------------------|--------------------------------
 D|---------------------------------|-3---3---3---3---3---3---3---3--
 A|-----------------3---3-----------|-1---1---1---1---1---1---1---1--
 E|-1---1---4---5-----------4---5---|--------------------------------

^ ^ ^ ^ ^ ^ ^ ^
[F]you ooh-ooh-ooh-[C7]ooh
 
 E|---------------------------------|--------------------------------
 B|---------------------------------|--------------------------------
 G|---------------------------------|--------------------------------
 D|---------------------------------|-5---5-----------5---X---7---X--
 A|-----------------3---3-----------|-3---3---6---7------------------
 E|-1---1---4---5-----------5---1---|--------------------------------

^ ^ ^ ^ ^ ^ ^ ^
Verse 2:
[F]Hold me tight [Bb7]
 
 E|---------------------------------|--------------------------------
 B|---------------------------------|--------------------------------
 G|---------------------------------|--------------------------------
 D|---------------------------------|-----------------6---6----------
 A|-----------------3---3-----------|---------4---5---8---8---5------
 E|-1---1---4---5-----------5---1---|-/6--6-----------------------1--

^ ^ ^ ^ ^ ^ ^ ^
[G7]Let me go on [C7]loving you To-
 
 E|---------------------------------|--------------------------------
 B|---------------------------------|--------------------------------
 G|---------------------------------|-----------------3---3----------
 D|---------------------------------|---------1---2---5---5---5------
 A|---------1---2---5---5---1---2---|-3---3-----------------------3--
 E|-/3--3---------------------------|--------------------------------

^ ^ ^ ^ ^ ^ ^ ^
[F]night, tonight[Bb7]
 
 E|---------------------------------|--------------------------------
 B|---------------------------------|--------------------------------
 G|---------------------------------|--------------------------------
 D|---------------------------------|-----------------6---6----------
 A|-----------------3---3-----------|---------4---5---8---8---5------
 E|-1---1---4---5-----------5---1---|-/6--6-----------------------1--

^ ^ ^ ^ ^ ^ ^ ^
[G7]Making love to [C7]only you, so
 
 E|---------------------------------|--------------------------------
 B|---------------------------------|--------------------------------
 G|---------------------------------|-----------------3---3----------
 D|---------------------------------|---------1---2---5---5---5------
 A|---------1---2---5---5---1---2---|-3---3-----------------------3--
 E|-/3--3---------------------------|--------------------------------

^ ^ ^ ^ ^ ^ ^ ^
[F]Hold me tight [F7] tonight
 
 E|---------------------------------|--------------------------------
 B|---------------------------------|--------------------------------
 G|---------------------------------|--------------------------------
 D|---------------------------------|---------------------------------
 A|-----------------3---3-----------|-----------------3---3----------
 E|-1---1---4---5-----------4---5---|-1---1---4---5-----------4---5--

^ ^ ^ ^ ^ ^ ^ ^
[Bb] tonight [Bbm] It's
 
 E|---------------------------------|--------------------------------
 B|---------------------------------|--------------------------------
 G|---------------------------------|--------------------------------
 D|-3---3---3---3---3---3---3---3---|-3---3---3---3---3---3---3---3--
 A|-1---1---1---1---1---1---1---1---|-1---1---1---1---1---1---1---1--
 E|---------------------------------|--------------------------------

^ ^ ^ ^ ^ ^ ^ ^
[F]you [Bbm] You you
 
 E|---------------------------------|--------------------------------
 B|---------------------------------|--------------------------------
 G|---------------------------------|--------------------------------
 D|---------------------------------|-3---3---3---3---3---3---3---3--
 A|-----------------3---3-----------|-1---1---1---1---1---1---1---1--
 E|-1---1---4---5-----------4---5---|--------------------------------

^ ^ ^ ^ ^ ^ ^ ^
[F]you ooh-ooh-ooh-[C7]ooh Don't
 
 E|---------------------------------|--------------------------------
 B|---------------------------------|--------------------------------
 G|---------------------------------|--------------------------------
 D|---------------------------------|--------------------------------
 A|-----------------3---3-----------|---------2---3---6-------3------
 E|-1---1---4---5-----------5---1---|-4---4---------------4------X---

^ ^ ^ ^ ^ ^ ^ ^
Bridge:
[F]know, [Ab7]what it means to
 
 E|---------------------------------|--------------------------------
 B|---------------------------------|--------------------------------
 G|---------------------------------|--------------------------------
 D|---------------------------------|-----------------4---4----------
 A|-----------------3---3-----------|---------2---3---6---6---6---3--
 E|-1---1---4---5-----------5---1---|-4---4--------------------------

^ ^ ^ ^ ^ ^ ^ ^
[F]hold you tight [Bb7]Being here
 
 E|---------------------------------|--------------------------------
 B|---------------------------------|--------------------------------
 G|---------------------------------|--------------------------------
 D|---------------------------------|-----------------6---6----------
 A|-----------------3---3-----------|---------4---5---8---8---8---5--
 E|-1---1---4---5-----------5---1---|-/6--6--------------------------

^ ^ ^ ^ ^ ^ ^ ^
[Gm]alone tonight with you [G7] It
 
 E|---------------------------------|--------------------------------
 B|---------------------------------|--------------------------------
 G|---------------------------------|--------------------------------
 D|-5---5-------5---5---5-------5---|-5---5-----------5---5---5---5--
 A|-5---5-------5---5---5-------5---|-5---5-----------5---5---5---5--
 E|---------------------------------|---------6---7------------------

^ ^ ^ ^ ^ ^ ^ ^
[C7]feels alright now
 
 E|---------------------------------|
 B|---------------------------------|
 G|---------------------------------|
 D|-5---5-----------5---5-----------|
 A|-3---3---6---7-----------7---3---|
 E|---------------------------------|

^ ^ ^ ^
Verse 3:
[F]Hold me tight [Bb7]
 
 E|---------------------------------|--------------------------------
 B|---------------------------------|--------------------------------
 G|---------------------------------|--------------------------------
 D|---------------------------------|-----------------6---6----------
 A|-----------------3---3-----------|---------4---5---8---8---5------
 E|-1---1---4---5-----------5---1---|-/6--6-----------------------1--

^ ^ ^ ^ ^ ^ ^ ^
[G7]Tell me I'm the [C7]only one, and
 
 E|---------------------------------|--------------------------------
 B|---------------------------------|--------------------------------
 G|---------------------------------|-----------------3---3----------
 D|---------------------------------|---------1---2---5---5---5------
 A|---------1---2---5---5---1---2---|-3---3-----------------------3--
 E|-/3--3---------------------------|--------------------------------

^ ^ ^ ^ ^ ^ ^ ^
[F]then, I might[Bb7]
 
 E|---------------------------------|--------------------------------
 B|---------------------------------|--------------------------------
 G|---------------------------------|--------------------------------
 D|---------------------------------|-----------------6---6----------
 A|-----------------3---3-----------|---------4---5---8---8---5------
 E|-1---1---4---5-----------5---1---|-/6--6-----------------------1--

^ ^ ^ ^ ^ ^ ^ ^
[G7]Never be the [C7]lonely one, so
 
 E|---------------------------------|--------------------------------
 B|---------------------------------|--------------------------------
 G|---------------------------------|-----------------3---3----------
 D|---------------------------------|---------1---2---5---5---5------
 A|---------1---2---5---5---1---2---|-3---3-----------------------3--
 E|-/3--3---------------------------|--------------------------------

^ ^ ^ ^ ^ ^ ^ ^
[F]Hold me tight [F7] tonight
 
 E|---------------------------------|--------------------------------
 B|---------------------------------|--------------------------------
 G|---------------------------------|--------------------------------
 D|---------------------------------|---------------------------------
 A|-----------------3---3-----------|-----------------3---3----------
 E|-1---1---4---5-----------4---5---|-1---1---4---5-----------4---5--

^ ^ ^ ^ ^ ^ ^ ^
[Bb] tonight [Bbm] It's
 
 E|---------------------------------|--------------------------------
 B|---------------------------------|--------------------------------
 G|---------------------------------|--------------------------------
 D|-3---3---3---3---3---3---3---3---|-3---3---3---3---3---3---3---3--
 A|-1---1---1---1---1---1---1---1---|-1---1---1---1---1---1---1---1--
 E|---------------------------------|--------------------------------

^ ^ ^ ^ ^ ^ ^ ^
[F]you [Bbm] You you
 
 E|---------------------------------|--------------------------------
 B|---------------------------------|--------------------------------
 G|---------------------------------|--------------------------------
 D|---------------------------------|-3---3---3---3---3---3---3---3--
 A|-----------------3---3-----------|-1---1---1---1---1---1---1---1--
 E|-1---1---4---5-----------4---5---|--------------------------------

^ ^ ^ ^ ^ ^ ^ ^
[F]you ooh-ooh-ooh-[C7]ooh
 
 E|---------------------------------|--------------------------------
 B|---------------------------------|--------------------------------
 G|---------------------------------|--------------------------------
 D|---------------------------------|-5---5-----------5---X---7---X--
 A|-----------------3---3-----------|-3---3---6---7------------------
 E|-1---1---4---5-----------5---1---|--------------------------------

^ ^ ^ ^ ^ ^ ^ ^
Verse 4:
[F]Hold me tight [Bb7]
 
 E|---------------------------------|--------------------------------
 B|---------------------------------|--------------------------------
 G|---------------------------------|--------------------------------
 D|---------------------------------|-----------------6---6----------
 A|-----------------3---3-----------|---------4---5---8---8---5------
 E|-1---1---4---5-----------5---1---|-/6--6-----------------------1--

^ ^ ^ ^ ^ ^ ^ ^
[G7]Let me go on [C7]loving you To-
 
 E|---------------------------------|--------------------------------
 B|---------------------------------|--------------------------------
 G|---------------------------------|-----------------3---3----------
 D|---------------------------------|---------1---2---5---5---5------
 A|---------1---2---5---5---1---2---|-3---3-----------------------3--
 E|-/3--3---------------------------|--------------------------------

^ ^ ^ ^ ^ ^ ^ ^
[F]night, tonight[Bb7]
 
 E|---------------------------------|--------------------------------
 B|---------------------------------|--------------------------------
 G|---------------------------------|--------------------------------
 D|---------------------------------|-----------------6---6----------
 A|-----------------3---3-----------|---------4---5---8---8---5------
 E|-1---1---4---5-----------5---1---|-/6--6-----------------------1--

^ ^ ^ ^ ^ ^ ^ ^
[G7]Making love to [C7]only you, so
 
 E|---------------------------------|--------------------------------
 B|---------------------------------|--------------------------------
 G|---------------------------------|-----------------3---3----------
 D|---------------------------------|---------1---2---5---5---5------
 A|---------1---2---5---5---1---2---|-3---3-----------------------3--
 E|-/3--3---------------------------|--------------------------------

^ ^ ^ ^ ^ ^ ^ ^
[F]Hold me tight [F7] tonight
 
 E|---------------------------------|--------------------------------
 B|---------------------------------|--------------------------------
 G|---------------------------------|--------------------------------
 D|---------------------------------|---------------------------------
 A|-----------------3---3-----------|-----------------3---3----------
 E|-1---1---4---5-----------4---5---|-1---1---4---5-----------4---5--

^ ^ ^ ^ ^ ^ ^ ^
[Bb] tonight [Bbm] It's
 
 E|---------------------------------|--------------------------------
 B|---------------------------------|--------------------------------
 G|---------------------------------|--------------------------------
 D|-3---3---3---3---3---3---3---3---|-3---3---3---3---3---3---3---3--
 A|-1---1---1---1---1---1---1---1---|-1---1---1---1---1---1---1---1--
 E|---------------------------------|--------------------------------

^ ^ ^ ^ ^ ^ ^ ^
[F]you [Bbm] You you
 
 E|---------------------------------|--------------------------------
 B|---------------------------------|--------------------------------
 G|---------------------------------|--------------------------------
 D|---------------------------------|-3---3---3---3---3---3---3---3--
 A|-----------------3---3-----------|-1---1---1---1---1---1---1---1--
 E|-1---1---4---5-----------4---5---|--------------------------------

^ ^ ^ ^ ^ ^ ^ ^
[F]you ooh-ooh-ooh-[C7]ooh Don't
 
 E|---------------------------------|--------------------------------
 B|---------------------------------|--------------------------------
 G|---------------------------------|--------------------------------
 D|---------------------------------|--------------------------------
 A|-----------------3---3-----------|---------2---3---6-------3------
 E|-1---1---4---5-----------5---1---|-4---4---------------4------X---

^ ^ ^ ^ ^ ^ ^ ^
Bridge:
[F]know, [Ab7]what it means to
 
 E|---------------------------------|--------------------------------
 B|---------------------------------|--------------------------------
 G|---------------------------------|--------------------------------
 D|---------------------------------|-----------------4---4----------
 A|-----------------3---3-----------|---------2---3---6---6---6---3--
 E|-1---1---4---5-----------5---1---|-4---4--------------------------

^ ^ ^ ^ ^ ^ ^ ^
[F]hold you tight [Bb7]Being here
 
 E|---------------------------------|--------------------------------
 B|---------------------------------|--------------------------------
 G|---------------------------------|--------------------------------
 D|---------------------------------|-----------------6---6----------
 A|-----------------3---3-----------|---------4---5---8---8---8---5--
 E|-1---1---4---5-----------5---1---|-/6--6--------------------------

^ ^ ^ ^ ^ ^ ^ ^
[Gm]alone tonight with you [G7] It
 
 E|---------------------------------|--------------------------------
 B|---------------------------------|--------------------------------
 G|---------------------------------|--------------------------------
 D|-5---5-------5---5---5-------5---|-5---5-----------5---5---5---5--
 A|-5---5-------5---5---5-------5---|-5---5-----------5---5---5---5--
 E|---------------------------------|---------6---7------------------

^ ^ ^ ^ ^ ^ ^ ^
[C7]feels alright now
 
 E|---------------------------------|
 B|---------------------------------|
 G|---------------------------------|
 D|-5---5-----------5---5-----------|
 A|-3---3---6---7-----------7---3---|
 E|---------------------------------|

^ ^ ^ ^
Verse 5:
[F]Hold me tight [Bb7]
 
 E|---------------------------------|--------------------------------
 B|---------------------------------|--------------------------------
 G|---------------------------------|--------------------------------
 D|---------------------------------|-----------------6---6----------
 A|-----------------3---3-----------|---------4---5---8---8---5------
 E|-1---1---4---5-----------5---1---|-/6--6-----------------------1--

^ ^ ^ ^ ^ ^ ^ ^
[G7]Tell me I'm the [C7]only one, and
 
 E|---------------------------------|--------------------------------
 B|---------------------------------|--------------------------------
 G|---------------------------------|-----------------3---3----------
 D|---------------------------------|---------1---2---5---5---5------
 A|---------1---2---5---5---1---2---|-3---3-----------------------3--
 E|-/3--3---------------------------|--------------------------------

^ ^ ^ ^ ^ ^ ^ ^
[F]then, I might[Bb7]
 
 E|---------------------------------|--------------------------------
 B|---------------------------------|--------------------------------
 G|---------------------------------|--------------------------------
 D|---------------------------------|-----------------6---6----------
 A|-----------------3---3-----------|---------4---5---8---8---5------
 E|-1---1---4---5-----------5---1---|-/6--6-----------------------1--

^ ^ ^ ^ ^ ^ ^ ^
[G7]Never be the [C7]lonely one, so
 
 E|---------------------------------|--------------------------------
 B|---------------------------------|--------------------------------
 G|---------------------------------|-----------------3---3----------
 D|---------------------------------|---------1---2---5---5---5------
 A|---------1---2---5---5---1---2---|-3---3-----------------------3--
 E|-/3--3---------------------------|--------------------------------

^ ^ ^ ^ ^ ^ ^ ^
[F]Hold me tight [F7] tonight
 
 E|---------------------------------|--------------------------------
 B|---------------------------------|--------------------------------
 G|---------------------------------|--------------------------------
 D|---------------------------------|---------------------------------
 A|-----------------3---3-----------|-----------------3---3----------
 E|-1---1---4---5-----------4---5---|-1---1---4---5-----------4---5--

^ ^ ^ ^ ^ ^ ^ ^
[Bb] tonight [Bbm] It's
 
 E|---------------------------------|--------------------------------
 B|---------------------------------|--------------------------------
 G|---------------------------------|--------------------------------
 D|-3---3---3---3---3---3---3---3---|-3---3---3---3---3---3---3---3--
 A|-1---1---1---1---1---1---1---1---|-1---1---1---1---1---1---1---1--
 E|---------------------------------|--------------------------------

^ ^ ^ ^ ^ ^ ^ ^
[F]you [Bbm] You you
 
 E|---------------------------------|--------------------------------
 B|---------------------------------|--------------------------------
 G|---------------------------------|--------------------------------
 D|---------------------------------|-3---3---3---3---3---3---3---3--
 A|-----------------3---3-----------|-1---1---1---1---1---1---1---1--
 E|-1---1---4---5-----------4---5---|--------------------------------

^ ^ ^ ^ ^ ^ ^ ^
[F]you ooh-ooh-ooh-[Ab]ooh ooh
 
 E|---------------------------------|--------------------------------
 B|---------------------------------|--------------------------------
 G|---------------------------------|--------------------------------
 D|---------------------------------|--------------------------------
 A|-----------------3---3-----------|---------2---3---6---6---3------
 E|-1---1---4---5-----------5---1---|-4---4-----------------------4--

^ ^ ^ ^ ^ ^ ^ ^
[F]ooh [Ab]You ooh
 
 E|---------------------------------|--------------------------------
 B|---------------------------------|--------------------------------
 G|---------------------------------|--------------------------------
 D|---------------------------------|--------------------------------
 A|-----------------3---3-----------|---------2---3---6---6---3------
 E|-1---1---4---5-----------5---1---|-4---4-----------------------4--

^ ^ ^ ^ ^ ^ ^ ^
[F]ooh
 
 E|---------------------------------|
 B|---------------------------------|
 G|---------------------------------|
 D|---------------------------------|
 A|-3-------------------------------|
 E|-1-------------------------------|

^ ^ ^ ^
 
 -----------------------------------------------------------------

| Tabbed By the Beatles Central Team (jpgr_beatles@yahoo.com) |
| Visit Beatles Central for every major release by The Beatles |
| in MIDI and Tab form (over 250 songs), as well as biographies.|
| http://members.tripod.com/~jpgr_beatles/index.html |
 
 -----------------------------------------------------------------


Important: The song above is NOT stored on the Chordie server. The original song is hosted at www.xguitar.com. Chordie works as a search engine and provides on-the-fly formatting. Chordie does not index songs against artists'/composers' will. To remove this song please click here.

Text color:
Chord color:
Chord grids: 
Font size:    
Page size: 

Ab Ab7 Bb Bb7 Bbm C7 F F7 G7 Gm
Rate #2 of 11 versions

Jango Player

Login - add to songbook

SHARE PAGE  




You need to log in to post comments