I Wanna Be Your Man

Beatles

E|---------------------------------|
B|---------------------------------|
G|-2(4)hold--(4)release-2----------|
D|-------------------------0-------|
A|---------------------------------|
E|---------------------------------|

^ ^ ^ ^
Verse 1:
 E7
 I wanna be your lover baby  I wanna be your man
I wanna be your lover baby I wanna be your man
Love you like no other baby like no other can
Love you like no other baby like no other can
Chorus:
 E7F#7
 I wanna be your man  
Fill 1:
E|---------14-----13---12----11----|
B|---------------------------------|
G|---------11-----10----9-----8----|
D|---------------------------------|
A|---------------------------------|
E|---------------------------------|

^ ^ ^ ^
 B7E
      I wanna be your man  
Fill 2:
E|---------12-----11---10-----9----|
B|---------------------------------|
G|----------9------8----7-----6----|
D|---------------------------------|
A|---------------------------------|
E|---------------------------------|

^ ^ ^ ^
 C#7F#7
 I wanna be your man      (Fill 1)
 B7ED/E
 I wanna be your man  
Verse 2:
 E7
 Love you like no other baby  like no other can
Love you like no other baby like no other can
Chorus:
 E7F#7
 I wanna be your man     (Fill 1)
 B7E
 I wanna be your man     (Fill 2)
 C#7F#7
 I wanna be your man     (Fill 1)
 B7ED/E
 I wanna be your man  
Verse 3:
Tell me that you love me baby Let me understand
Tell me that you love me baby I wanna be your man
I wanna be your lover baby I wanna be your man
I wanna be your lover baby I wanna be your man
Chorus:
 E7F#7
 I wanna be your man     (Fill 1)
 B7E
 I wanna be your man     (Fill 2)
 C#7F#7
 I wanna be your man     (Fill 1)
 B7ED/E
 I wanna be your man  
Solo:
 E7
E|---------------------------------|--------------------------------
B|---------------------------------|--------------------------------
G|---------2b(4)--------------2b(4)|------------2b(4)r2--0----------
D|---------------------------------|-------------------------2------
A|---------------------------------|--------------------------------
E|---------------------------------|--------------------------------

^ ^ ^ ^ ^ ^ ^ ^
E|---------------------------------|--------------------------------
B|---------------------------------|--------------------------------
G|-------------0-----------2-------|-2b(4)------2b(4)r2--0----------
D|-2-------------------------------|-------------------------2------
A|---------------------------------|--------------------------------
E|---------------------------------|--------------------------------

^ ^ ^ ^ ^ ^ ^ ^
E|---------------------------------|--------------------------------
B|---------9-----------7-----------|-9----------12-----------9------
G|---------9-----------7-----------|-9----------12-----------9------
D|---------9-----------7-----------|-9----------12-----------9------
A|---------------------------------|--------------------------------
E|---------------------------------|--------------------------------

^ ^ ^ ^ ^ ^ ^ ^
E|---------------------------------|--------------------------------
B|---------9-----------7-----------|-9----------12------------------
G|---------9-----------7-----------|-9----------12------------------
D|---------9-----------7-----------|-9----------12------------------
A|---------------------------------|--------------------------------
E|---------------------------------|--------------------------------

^ ^ ^ ^ ^ ^ ^ ^
E|---------------------------------|--------------------------------
B|--------12---9-------------------|-7-----------9------------------
G|--------12---9-------------------|-7-----------9------------------
D|--------12---9-------------------|-7-----------9------------------
A|---------------------------------|--------------------------------
E|---------------------------------|--------------------------------

^ ^ ^ ^ ^ ^ ^ ^
E|---------------------------------|--------------------------------
B|--------12---9-------------------|-7-----------9------------------
G|--------12---9-------------------|-7-----------9------------------
D|--------12---9-------------------|-7-----------9------------------
A|---------------------------------|--------------------------------
E|---------------------------------|--------------------------------

^ ^ ^ ^ ^ ^ ^ ^
Verse 4:
I wanna be your lover baby I wanna be your man
I wanna be your lover baby I wanna be your man
Love you like no other baby like no other can
Love you like no other baby like no other can
Chorus:
 E7F#7
 I wanna be your man     (Fill 1)
 B7E
 I wanna be your man     (Fill 2)
 C#7F#7
 I wanna be your man     (Fill 1)
 B7ED/E
 I wanna be your man  
Coda:
 E7
 I wanna be your man   oh    I wanna be your man   oh
I wanna be your man ho ho
-----------------------------------------------------------------

| Tabbed By the Beatles Central Team (jpgr_beatles@yahoo.com) |
| Visit Beatles Central for every major release by The Beatles |
| in MIDI and Tab form (over 250 songs), as well as biographies.|
| http://members.tripod.com/~jpgr_beatles/index.html |
-----------------------------------------------------------------



B7 C#7 D/E E E7 F#7
variations - click chord images
Transpose chords:
Tuning:
Cool service:
View: Size:
A  A  A
Rating:
Layout:
  • Currently 3.9/5 Stars.
  • 1
  • 2
  • 3
  • 4
  • 5
 
Accuracy:
  • Currently 3.1/5 Stars.
  • 1
  • 2
  • 3
  • 4
  • 5
 
click stars to rate
Chordie recommends:
Get acoustic guitar lessons and electric guitar lessons at JamPlay.com
Songbook:
Login to add this song to your songbook
Support the artist
Preview/buy this song
MSN Music
Why this non-profit ad?

 
login to add comments/video/corrections

czar steve (report comment to admin):
What does b mean on the tabs?