"yes"; ?> Canceled Check by Beck - guitar chords, guitar tabs and lyrics - chordie

Canceled Check

Beck

E  ------15------------7--------------------------

C# -14(15)----2-3-4-5--------7(9)-(9)7-5----------
A -----------2-4-5-6--------------------5(7)-----
E -------------------------------------------7~--
A -----------------------------------------------
E -----------------------------------------------
------14-16-14--------------------------
-12/14----------14p12----12(14)-12(14)~-
----------------------14----------------
----------------------------------------
----------------------------------------
----------------------------------------

 BDEAF#B7G
E  -2--5--7--0--2---5---3-
C# -2--5--7--0--0---2---1-
A  -2--5--7--0--1---2---2-
E  -2--5--7--0--2---2---3-
A  -2--5--7--0------2-----
E  -2---------------------


 BDAEAB
 I hate to do this but you're a pain in the neck
 BDAEAB
 I thought you knew this you're handing me a canceled check
 BDAEAB
 you're so helpless your girlfriends think you're a saint
 BDAEAD
 I'll give you a quarter I'll keep my judgements to myself

 DF#
 and i get caught up in the moonlight
 BB7
reaching out for a rotten egg I don't want to beg
 GF#B
it's crystal clear your time is nearly gone

count your blessings and do the things that you should
o the has-beens that never had it so good
stormy weather the kids are making a racket
in the wilderness the wild lives are so mild

CHORUS

CHORUS


A B B7 D E F# G
variations - click chord images
Transpose chords:
Tuning:
Cool service:
View: Size:
A  A  A
Rating:
Layout:
  • Currently 2.4/5 Stars.
  • 1
  • 2
  • 3
  • 4
  • 5
 
Accuracy:
  • Currently 2.3/5 Stars.
  • 1
  • 2
  • 3
  • 4
  • 5
 
click stars to rate
Chordie recommends:
Learn to play this song & others via video guitar lessons at JamPlay.com
Songbook:
Login to add this song to your songbook
Support the artist
Preview/buy this song
MSN Music
Why this non-profit ad?

 
login to add comments/video/corrections