Canceled Check


E  ------15------------7--------------------------

C# -14(15)----2-3-4-5--------7(9)-(9)7-5----------
A -----------2-4-5-6--------------------5(7)-----
E -------------------------------------------7~--
A -----------------------------------------------
E -----------------------------------------------

E  -2--5--7--0--2---5---3-
C# -2--5--7--0--0---2---1-
A  -2--5--7--0--1---2---2-
E  -2--5--7--0--2---2---3-
A  -2--5--7--0------2-----
E  -2---------------------

 I hate to do this but you're a pain in the neck
 I thought you knew this you're handing me a canceled check
 you're so helpless your girlfriends think you're a saint
 I'll give you a quarter I'll keep my judgements to myself

 and i get caught up in the moonlight
reaching out for a rotten egg I don't want to beg
it's crystal clear your time is nearly gone

count your blessings and do the things that you should
o the has-beens that never had it so good
stormy weather the kids are making a racket
in the wilderness the wild lives are so mild



A B B7 D E F# G
variations - click chord images
Transpose chords:
Cool service:
View: Size:
A  A  A
  • Currently 2.4/5 Stars.
  • 1
  • 2
  • 3
  • 4
  • 5
  • Currently 2.3/5 Stars.
  • 1
  • 2
  • 3
  • 4
  • 5
click stars to rate
Login to add this song to your songbook
IMPORTANT: The song above is NOT stored on the Chordie server. The original song is hosted at Chordie works as a search engine and provides on-the-fly formating. Chordie does not index songs against artists/composers will. To remove this song please click here.

login to add comments/video/corrections