Cold Brains

Beck

 DAG
guitar 2 (heavy wa-wa)
--------------------------------------
--------------------------------------
--------------------------------------
--------------------------------------
-5~--4~--2~--3~---------5~---
-------------------5~~-------------


synth during chorus
2x
||-------------------------14-17-15-14-20-19-17-15-||
||-14-15-17-14-15-17-14-15-------------------------||
||-----------------------------------------------------------------||
||-----------------------------------------------------------------||
||-----------------------------------------------------------------||
||-----------------------------------------------------------------||
-16-17-19-16-17-14-15----14-15--------12--------
----------------------15-------15-14-----12(14)-----------
--------------------------------------------------------------------
--------------------------------------------------------------------
--------------------------------------------------------------------
--------------------------------------------------------------------


 DAGCD
   Cold Brains, unmoved, untouched, unglued,
 AGGsusG
  alone at last      
 DAGCD
   no thoughts, no mind to rot behind
 AGG7G6
  a trail of disasters     

 ADFA
 a final curse abandoned hearse
 ADFE
 we ride disowned corroded to the bone

the fields of green are bent, obscene
i lay upon the gravel
a worm of hope a hangman's rope
pulls me one way or the other

a final curse abandoned hearse
we write this song corroded to the bone

harmonica "solo"

a bird of song is heard no longer
in the evacuated heavens
the drain is drawn and drained and gone
and on and on, it doesn't matter

a final curse abandoned hearse
we ride disowned corroded to the bone

harmonica "solo", fade

-goda-


A C D E F G G6 G7 Gsus
variations - click chord images
Transpose chords:
Tuning:
Cool service:
View: Size:
A  A  A
Rating:
Layout:
  • Currently 3/5 Stars.
  • 1
  • 2
  • 3
  • 4
  • 5
 
Accuracy:
  • Currently 2.6/5 Stars.
  • 1
  • 2
  • 3
  • 4
  • 5
 
click stars to rate
Chordie recommends:
Get acoustic guitar lessons and electric guitar lessons at JamPlay.com
Songbook:
Login to add this song to your songbook
Support the artist
Preview/buy this song
MSN Music
Why this non-profit ad?

 
login to add comments/video/corrections