Guitar Tabs, Chords and Lyrics


Alone    Ben Harper



Alone
Ben Harper
Tabber : crazytom
deathtone@wanadoo.fr

Verse :
e---------------------------------------------------------------------
b---------------------------------------------------------------------
g---------------------------------------------------------------------
d-----7-7-7---5-5-5---4-4-4---5-5-5---5-5-5---5-5-5---4-4-4---4-4-4---
a-----------------------------------3-------3-------2-------2---------
e---0-------0-------0-------0-----------------------------------------

Pre-chorus: x2
-------------------------------------
-------------------------------------
-------------------------------------
-----5-5-5---5-5-5---4-4-4---4-4-4---
---3-------3-------2-------2---------
-------------------------------------

Chorus:
-------------------------------------
-------------------------------------
-------------------------------------
-----2-2-2---5-5-5---2-2-2---0-0-0---
---0-------3-------0-----------------
---------------------------0---------

Post-chorus:
-------------------------------------
-------------------------------------
-------------------------------------
-----2-2-2---2-2-2---2-2-2---2-2-2---
---0-------0-------0-------0---------
-------------------------------------

Solo:
-----------------------------------------------------------------
-----------------------------------------------------------------
---4---5p4-4-------------------------4---5p4-4---5h7\4---5h7\2---
---------------7-5/7---5-4h5p4---5-7-----------------------------
-----------------------------------------------------------------
-----------------------------------------------------------------

-----------------------------------------------
-----------------------------------------------
---4-5p4----------------------------------4b---
---------7--5--4--7--5--4--5-----4--5--7-------
------------------------------7----------------


Important: The song above is NOT stored on the Chordie server. The original song is hosted at www.xguitar.com. Chordie works as a search engine and provides on-the-fly formatting. Chordie does not index songs against artists'/composers' will. To remove this song please click here.

This song is displayed as text-only. Transposing and tuning is only available for chordpro-songs.

Login - add to songbook

Rating click stars to rate

Layout
Accuracy

SHARE PAGE  




You need to log in to post comments