Guitar Tabs, Chords and Lyrics


Waiting on an Angel    Ben Harper



BAND: 	Ben Harper
SONG:	Waiting On An Angel
TAB:	el sancco (sancco@hotmail.com)

This is a really nice, relaxing song.  I hope this tab is of some
help, but if you wish to use it on your web site or claim credit
for this tab, please email me before hand.  Thanks.


INTRO:
------

d|-------------|-----------------|-------------|-----------------|
F|---1-1---1-1-|---1-1p0---0-0h1-|---1-1---1-1-|---1-1p0---------|
A|---0-0---0-0-|---2-2p0---0-0---|---0-0---0-0-|---2-2p0---------|
C|-------------|-----------------|-------------|-----------------|
G|-3-----2-----|-0---------------|-3-----2-----|-0---------------|
D|-------------|---------3-------|-------------|---------3-------|



VERSE:
------

d|-------------|-----------------|
F|---1-1---1-1-|---1-1p0---0-0h1-|
A|---0-0---0-0-|---2-2p0---0-0---| PLAY
C|-------------|-----------------|  x3
G|-3-----2-----|-0---------------|
D|-------------|---------3-------|

d|-----------------------|-----------------|
F|---1-1p0---------0-0h1-|---1-1p0---0-0h1-|
A|---0-0-----------0-0---|---0-0-----0-0---|
C|-----------------------|-----------------|
G|-----------------------|-0---------------|
D|-1-------------3-------|---------0-------|

d|----------------------|
F|---1-1p0--------0-0h1-|
A|---0-0----------0-0---|
C|----------------------|
G|----------------------|
D|-1------------3-------|

d|-------------|-----------------|
F|---1-1---1-1-|---1-1p0---0-0h1-|
A|---0-0---0-0-|---2-2p0---0-0---| PLAY
C|-------------|-----------------|  x2
G|-3-----2-----|-0---------------|
D|-------------|---------3-------|



VERSE 2:
--------

d|-------------|-----------------|
F|---1-1---1-1-|---1-1p0---0-0h1-|
A|---0-0---0-0-|---2-2p0---0-0---| PLAY
C|-------------|-----------------|  x3
G|-3-----2-----|-0---------------|
D|-------------|---------3-------|

d|------------------|-----------------|
F|----1-1p0---0-0h1-|---1-1p0---0-0h1-|
A|----0-0-----0-0---|---0-0-----0-0---|
C|------------------|-----------------|
G|------------------|-0---------------|
D|--1-------3-------|---------0-------|

d|------------------|-----------------|
F|----1-1p0---0-0h1-|---1-1p0---0-0h1-|
A|----0-0-----0-0---|---0-0-----0-0---|
C|------------------|-----------------|
G|------------------|-3---------------|
D|--1-------3-------|---------0-------|



CHORUS:
-------

d|-----------------|-----------------|-----------------|-----------------|
F|---1-1p0---0-0h1-|---1-1p0---0-0h1-|---1-1p0---0-0h1-|---1-1p0---0-0h1-|
A|---0-0-----0-0---|---0-0-----0-0---|---0-0-----0-0---|---0-0-----0-0---| PLAY
C|-----------------|-----------------|-----------------|-----------------|  x2
G|-----------------|-0---------------|-----------------|-3---------------|
D|-1-------3-------|---------0-------|-1-------3-------|---------0-------|

d|-----------------|
F|---1-1p0---0-0h1-|
A|---0-0-----0-0---|
C|-----------------|
G|-----------------|
D|-1-------3-------|

d|-------------|-----------------|
F|---1-1---1-1-|---1-1p0---0-0h1-|
A|---0-0---0-0-|---2-2p0---0-0---| PLAY
C|-------------|-----------------|  x2
G|-3-----2-----|-0---------------|
D|-------------|---------3-------|



VERSE 3: - Same as verse 2.
--------



CHORUS: - Same as above.
-------



VERSE 4:
--------

d|-------------|-----------------|
F|---1-1---1-1-|---1-1p0---0-0h1-|
A|---0-0---0-0-|---2-2p0---0-0---| PLAY
C|-------------|-----------------|  x3
G|-3-----2-----|-0---------------|
D|-------------|---------3-------|

d|------------------------|-----------------|
F|----1-1p0---------0-0h1-|---1-1p0---0-0h1-|
A|----0-0-----------0-0---|---0-0-----0-0---|
C|------------------------|-----------------|
G|------------------------|-3---------------|
D|--1-------------3-------|---------0-------|

d|---------------------|-----------------------|
F|-------1-1p0---0-0h1-|---1-1p0---------0-0h1-|
A|-------0-0-----0-0---|---0-0-----------0-0---|
C|---------------------|-----------------------|
G|---------------------|-0---------------------|
D|-----1-------3-------|---------------0-------|

d|------------------------|---------|
F|----1-1p0---------0-0h1-|---1-----|
A|----0-0-----------0-0---|---0-----|
C|------------------------|---------|
G|------------------------|---3-----|
D|--1-------------3-------|---------|



---------------------------------------------
Transcribed By SANCCO (sancco@hotmail.com)


Important: The song above is NOT stored on the Chordie server. The original song is hosted at www.xguitar.com. Chordie works as a search engine and provides on-the-fly formatting. Chordie does not index songs against artists'/composers' will. To remove this song please click here.

This song is displayed as text-only. Transposing and tuning is only available for chordpro-songs.

Login - add to songbook

Rating click stars to rate

Layout
Accuracy

SHARE PAGE  




You need to log in to post comments