Rebel Yell

Billy Idol

E +-10-10-10-10-10-10-10-10--+--10-10-10-10-10-10------+--------------------

B |-10-10-10-10-10-10-10-10--|--10-10-10-10-10-10------|--------------------
G |--------------------------|-------------------------|--------------------
D |-------------------7--9---|-------------------------|--------------------
A |----------9---------------|-----------9-------------|-------------5-5~---
E +-7------------------------+--7------------------0-2-+-3-3-3-3-3-3--------
E ------------------------------------------+--------+----------(fbk)------
B ------------------------------------------|--------|----------(fbk)------
G ------------4--4--------------------------|---4--4-|--7-------(fbk)------
D ------------2--2--------------------------|---2--2-|--7--7--9--------Z\--
A -----------------------------5-5~---------|--------|--5--7--9--------Z\--
E -2-2-2-2-2-------0-0-0-0-0-0------0-0-0-0-+-0------+-----5--7------------

 BmDmajDE
E ---------------------------------------------------------------------
B --7---7-----7------|---7---7-----7------|--7---7-----7------|--7--7--
G --7---7-----7------|---7---7-----7------|--7---7-----7------|--7--7--
D ----9---9-9---9-9--|-----7---7-7---7-7--|----5---5-5---5-5--|--5--5--
A -------------------|--------------------|-------------------|--7--7--
E ---------------------------------------------------------------------

(play x 4) (play x 2) (play once)
. .
Last night a . Last night a . pumping on the . floor
little angel came . little dancer came .
dancing to my door . .

Chorus.

 D5A5B5Bmin
E ----------------------------7---7--------------------------7---7----------
B --------------------x--x-x--7---7------------------x--x-x--7---7----------
G --7-7---------------x--x-x--7---7------------------x--x-x--7---7----------
D --7-7--7-7---9--9---x--x-x------------------9--9---x--x-x-----------------
A --5-5--7-7---9--9---------------------------9--9--------------------------
E -------5-5---7--7------------------5-7-5----7--7-------------------5-7-5--


Because... In the midnight hour she cried "more more more."

E -------------------------------------------------
B --7---x--x-x--7-----------7--7---x--x-x----7--7--
G --7---x--x-x--7-----------7--7---x--x-x----7--7--  (play again)
D --7---x--x-x--7-----------5--5---x--x-x----5--5--
A -------------------------------------------7--7--
E ------------------5-7-5--------------------------


With a rebel yell, she cried "more more more."

Enjoy!

Rebel Yell by Billy Idol
By Vulgar101.com

Listen to the song for rhythm

Intro Bridge
3x
E||---10--10--10--10--10--10--10--10---||--10--9--10--7--10--9--10--7--|
B||---12--12--12--12--12--12--12--12---||------------------------------|
G||*----------------------------------*||------------------------------|
D||*--------------------------7---9---*||--5---------------------------|
A||---------------9--------------------||--5---------------------------|
E||---7--------------------------------||--3---------------------------|
--10--9--10--7--10--9--10--7--|--10--9--10--7--10--9--10--7--|
------------------------------|------------------------------|
------------------------------|------------------------------|
--4---------------------------|--2h--------------------------|
--4---------------------------|--2---------------------------|
--2---------------------------|--0---------------------------|
--10--9--10--7--10--9--10--7--|--10--9--10--7--10--9--10--7--|
------------------------------|------------------------------|
------------------------------|------------------------------|
--2h--------------------------|--5---------------------------|
--2---------------------------|--5---------------------------|
--0---------------------------|--3---------------------------|
--10--9--10--7--10--9--10--7--|--10--9--10--7--10--9--10--7--|
------------------------------|------------------------------|
------------------------------|------------------------------|
--4---------------------------|--2h--------------------------|
--4---------------------------|--2---------------------------|
--2---------------------------|--0---------------------------|
--10--9--10--7--10----9----|-------------------|------------------|
---------------------------|-------------------|------------------|
----------------7----------|--4----------------|------------------|
--2-------------7-----7----|--4----------------|------------------|
--2-------------5-----7----|--2----------------|------------------|
--0-------------------5----|-------------------|------------------|


Verse
--10~---------------|------------------|----------------------|
--12~---------------|------------------|----------------------|
--------------------|------------------|--4----4------4----4--|
--------------------|------------------|--4----4------4----4--|
--------------------|------------------|--2----2------2----2--|
--------------------|------------------|----------------------|
----------------------|----------------------|----------------------|
----------------------|----------------------|----------------------|
--4----4------4----4--|--4----4------4----4--|--4----4------4----4--|
--4----4------4----4--|--4----4------4----4--|--4----4------4----4--|
--2----2------2----2--|--2----2------2----2--|--2----2------2----2--|
----------------------|----------------------|----------------------|
----------------------|----------------------|----------------------|
----------------------|----------------------|----------------------|
----------------------|----------------------|----------------------|
--7----7------7----7--|--7----7------7----7--|--5----5------5----5--|
--7----7------7----7--|--7----7------7----7--|--5----5------5----5--|
--5----5------5----5--|--5----5------5----5--|--3----3------3----3--|
-----------------------|----------------------|----------------------|
-----------------------|----------------------|----------------------|
-----------7--7--------|--4----4------4----4--|--4----4------4----4--|
--2--------7--7--7--7--|--4----4------4----4--|--4----4------4----4--|
--2--------5--5--7--7--|--2----2------2----2--|--2----2------2----2--|
--0--------------5--5--|----------------------|----------------------|
----------------------|----------------------|----------------------|
----------------------|----------------------|----------------------|
--4----4------4----4--|--4----4------4----4--|----------------------|
--4----4------4----4--|--4----4------4----4--|--7----7------7----7--|
--2----2------2----2--|--2----2------2----2--|--7----7------7----7--|
----------------------|----------------------|--5----5------5----5--|
----------------------|----------------------|---------------------|
----------------------|----------------------|---------------------|
----------------------|----------------------|-----------7---------|
--7----7------7----7--|--5----5------5----5--|--2--------7----7----|
--7----7------7----7--|--5----5------5----5--|--2--------5----7----|
--5----5------5----5--|--3----3------3----3--|--0-------------5----|


Chorus

|-----------------------|----------------------|----------------------|
|-----------------------|----------------------|----------------------|
|*--4--------4--4----4--|--4--------4--4----4--|--4--------4--4----4--|
|*--4--------4--4----4--|--4--------4--4----4--|--4--------4--4----4--|
|---2h-------2--2----2--|--2h-------2--2----2--|--2h-------2--2----2--|
|-----------------------|----------------------|----------------------|
-----------------------|----------------------|----------------------|
-----------------2--3--|----------------------|----------------------|
--4--------2--4-----4--|----------------------|----------------------|
--4--------4--4-----4--|--7h-------7--7----7--|--7h-------7--7----7--|
--2--------2--2-----2--|--7h-------7--7----7--|--7h-------7--7----7--|
-----------------------|--5h-------5--5----5--|--5h-------5--5----5--|
----------------------|----------------------||
----------------------|----------------------||
----------------------|-----------7---------*||
--5h-------5--5----5--|--2--------7----7----*||
--5h-------5--5----5--|--2--------5----7-----||
--3h-------3--3----3--|--0-------------5-----||


Lyrics

INTRO

BRIDGE

Verse

 B
 Last night a little dancer came dancin' to my door

 AGEDA
 Last night a little angel Came pumpin cross my floor 

 B
 She said "Come on baby I got a licence for love

 AGEDA
 And if it expires pray help from above   

CHORUS

 B
 In the midnight hour she cried- "more, more, more"

 AGEDA
 With a rebel yell she cried- "more, more, more" 

 B
 In the midniight hour babe- "more, more, more"

 AGEDAB
 With a rebel yell- "more, more, more" More, more, more.

VERSE 2

 B
 She don't like slavery, she won't sit and beg

 AGEDA
 But when I'm tired and lonely she sees me to bed      

 B
 What set you free and brought you to be me babe

 AGEDA
 What set you free I need you hear by me   Because

CHORUS

 B
 In the midnight hour she cried- "more, more, more"

 AGEDA
 With a rebel yell she cried- "more, more, more" 

 B
 In the midnight hour babe- "more, more, more"

 AGEE
 With a rebel yell- "more, more, more"

BRIDGE

 GF#E
            He lives in his own heaven

 GF#E
            Collects it to go from the seven eleven

 GF#E
            Well he's out all night to collect a fare

 GF#E
            Just so long, just so long it don't mess up his hair.

INTRO

SOLO - NOT TABBED - PROGRESSION SAME AS CHORUS

DRUM BREAK

VERSE - BASS ONLY

 B
 I walked the ward with you, babe

 AGEDA
 A thousand miles with you        

 B
 I dried your tears of pain, babe

 AGEDA
 A million times for you        

 B
 I'd sell my soul for you babe

 AGEDA
 For money to burn with you        

 B
 I'd give you all, and have none, babe

 AGE
 Just, just, justa, justa to have you here by me

GUITAR IN

 DA
 Because

CHORUS

 B
 In the midnight hour she cried- "more, more, more"

 AGEDA
 With a rebel yell she cried- "more, more, more" 

 B
 In the midniight hour babe- "more, more, more"

 AGEDAB
 With a rebel yell she cried "more, more, more" More, more, more.

 A
Oh yeah little baby

 G
she want more

 EADB
 More, more, more, more, more.

 A
Oh yeah little baby

 G
she want more

 EDAB
 More, more, more, more, more.


A A5 B B5 Bm Bmin D D5 Dmaj E F# G
variations - click chord images
Transpose chords:
Tuning:
Cool service:
View: Size:
A  A  A
Rating:
Layout:
  • Currently 2.8/5 Stars.
  • 1
  • 2
  • 3
  • 4
  • 5
 
Accuracy:
  • Currently 2.2/5 Stars.
  • 1
  • 2
  • 3
  • 4
  • 5
 
click stars to rate
Chordie recommends:
Check out JamPlay.com for online video guitar lessons
Songbook:
Login to add this song to your songbook
Support the artist
Preview/buy this song
MSN Music
Why this non-profit ad?

 
login to add comments/video/corrections