Chordie logo


This Is How It Goes    Billy Talent



Song Title:This is How it Goes
Artist:Billy Talent
By:Cone Brown

This version is the album version cause i was to lazy to try to do the demo version
its drop D tuning
so enjoy

intro
eI------------------------------x3--I-forth-time-play------------------
BI----------------------------------I----------------------------------
GI----------------------------------I----------------------------------
DI----------------------------------I-------------------------77-7-33-3
AI-55555555555555554444444477777788-I-55555555555555554444444477-7-33-3
DI----------------------------------I-------------------------77-7-33-3

Chorus
e|------------------------------------------------|
B|------6---------6---------5---------------------|
G|------6---------6---------5---------------------|
D|-00-0-4-0--88-8-4-8--33-3-3-3-------------------|
A|-00-0-4-0--88-8-4-8--33-3-3-3-------------------|
D|-00-0---0--88-8---8--33-3---3--7-7-5-3-5-8-5-3--|

e|------------------------------------------------|
B|------6---------6---------5---------------------|
G|------6---------6---------5---------------------|
D|-00-0-4-0--88-8-4-8--33-3-3-3-------------------|
A|-00-0-4-0--88-8-4-8--33-3-3-3-----------------7-|
D|-00-0---0--88-8---8--33-3---3--7-7-5-3-6-8-10---|

e|------------------------------------------------|
B|------6---------6---------5---------------------|
G|------6---------6---------5---------------------|
D|-00-0-4-0--88-8-4-8--33-3-3-3-------------------|
A|-00-0-4-0--88-8-4-8--33-3-3-3-------------------|
D|-00-0---0--88-8---8--33-3---3--7-7-5-3-5-8-5-3--|

e|------------------------------------------------|
B|------6---------6---------5---------------------|
G|------6---------6---------5---------------------|
D|-00-0-4-0--88-8-4-8--33-3-3-3-------------------|
A|-00-0-4-0--88-8-4-8--33-3-3-3-----------------7-|
D|-00-0---0--88-8---8--33-3---3--7-7-5-3-6-8-10---|

Verse
The verse is basiclly the intro
eI------------------------------x3--I-forth-time-play------------------
BI----------------------------------I----------------------------------
GI----------------------------------I----------------------------------
DI----------------------------------I-------------------------77-7-33-3
AI-55555555555555554444444477777788-I-55555555555555554444444477-7-33-3
DI----------------------------------I-------------------------77-7-33-3

Chorus
e|------------------------------------------------|
B|------6---------6---------5---------------------|
G|------6---------6---------5---------------------|
D|-00-0-4-0--88-8-4-8--33-3-3-3-------------------|
A|-00-0-4-0--88-8-4-8--33-3-3-3-------------------|
D|-00-0---0--88-8---8--33-3---3--7-7-5-3-5-8-5-3--|

e|------------------------------------------------|
B|------6---------6---------5---------------------|
G|------6---------6---------5---------------------|
D|-00-0-4-0--88-8-4-8--33-3-3-3-------------------|
A|-00-0-4-0--88-8-4-8--33-3-3-3-----------------7-|
D|-00-0---0--88-8---8--33-3---3--7-7-5-3-6-8-10---|

e|------------------------------------------------|
B|------6---------6---------5---------------------|
G|------6---------6---------5---------------------|
D|-00-0-4-0--88-8-4-8--33-3-3-3-------------------|
A|-00-0-4-0--88-8-4-8--33-3-3-3-------------------|
D|-00-0---0--88-8---8--33-3---3--7-7-5-3-5-8-5-3--|

e|------------------------------------------------|
B|------6---------6---------5---------------------|
G|------6---------6---------5---------------------|
D|-00-0-4-0--88-8-4-8--33-3-3-3-------------------|
A|-00-0-4-0--88-8-4-8--33-3-3-3-----------------7-|
D|-00-0---0--88-8---8--33-3---3--7-7-5-3-6-8-10---|

Verse
eI------------------------------x5--I-Sixth-time-play------------------
BI----------------------------------I----------------------------------
GI----------------------------------I----------------------------------
DI----------------------------------I-------------------------77-7-33-3
AI-55555555555555554444444477777788-I-55555555555555554444444477-7-33-3
DI----------------------------------I-------------------------77-7-33-3

Chorus
e|------------------------------------------------|
B|------6---------6---------5---------------------|
G|------6---------6---------5---------------------|
D|-00-0-4-0--88-8-4-8--33-3-3-3-------------------|
A|-00-0-4-0--88-8-4-8--33-3-3-3-------------------|
D|-00-0---0--88-8---8--33-3---3--7-7-5-3-5-8-5-3--|

e|------------------------------------------------|
B|------6---------6---------5---------------------|
G|------6---------6---------5---------------------|
D|-00-0-4-0--88-8-4-8--33-3-3-3-------------------|
A|-00-0-4-0--88-8-4-8--33-3-3-3-----------------7-|
D|-00-0---0--88-8---8--33-3---3--7-7-5-3-6-8-10---|

e|------------------------------------------------|
B|------6---------6---------5---------------------|
G|------6---------6---------5---------------------|
D|-00-0-4-0--88-8-4-8--33-3-3-3-------------------|
A|-00-0-4-0--88-8-4-8--33-3-3-3-------------------|
D|-00-0---0--88-8---8--33-3---3--7-7-5-3-5-8-5-3--|

e|------------------------------------------------|
B|------6---------6---------5---------------------|
G|------6---------6---------5---------------------|
D|-00-0-4-0--88-8-4-8--33-3-3-3-------------------|
A|-00-0-4-0--88-8-4-8--33-3-3-3-----------------7-|
D|-00-0---0--88-8---8--33-3---3--7-7-5-3-6-8-10---|

e|------------------------------------------------|
B|------6---------6---------5---------------------|
G|------6---------6---------5---------------------|
D|-00-0-4-0--88-8-4-8--33-3-3-3-------------------|
A|-00-0-4-0--88-8-4-8--33-3-3-3-------------------|
D|-00-0---0--88-8---8--33-3---3--7-7-5-3-5-8-5-3--|

e|------------------------------------------------|
B|------6---------6---------5---------------------|
G|------6---------6---------5---------------------|
D|-00-0-4-0--88-8-4-8--33-3-3-3-------------------|
A|-00-0-4-0--88-8-4-8--33-3-3-3-----------------7-|
D|-00-0---0--88-8---8--33-3---3--7-7-5-3-6-8-10---|

e|------------------------------------------------|
B|------6---------6---------5---------------------|
G|------6---------6---------5---------------------|
D|-00-0-4-0--88-8-4-8--33-3-3-3-------------------|
A|-00-0-4-0--88-8-4-8--33-3-3-3-------------------|
D|-00-0---0--88-8---8--33-3---3--7-7-5-3-5-8-5-3--|

Before Interlude
e|----------------------------------------------|
B|------6--------6--------5---------------------|
G|------6--------6--------5---------------------|
D|-00-0-4-0-88-8-4-8-33-3-3-3--88-33------------|
A|-00-0-4-0-88-8-4-8-33-3-3-3--88-33------------|
D|-00-0---0-88-8---8-33-3---3--88-33------------|

Interlude
e|-55555-55555555-55555-55555555-5555-55555555-3333-33333333--|
B|-66666-66666666-33333-33333333-3333-33333333-1111-11111111--|
G|-77777-77777777-44444-44444444-3333-33333333-2222-22222222--|
D|-00000-00000000-55555-55555555-3333-33333333-3333-33333333--|
A|------------------------------------------------------------|
D|------------------------------------------------------------|

e|-5555555555555-5555555555555-555555555555-333333333333--|
B|-6666666666666-3333333333333-333333333333-111111111111--|
G|-7777777777777-4444444444444-333333333333-222222222222--|
D|-0000000000000-5555555555555-333333333333-333333333333--|
A|--------------------------------------------------------|
D|--------------------------------------------------------|

Chorus
e|------------------------------------------------|
B|------6---------6---------5---------------------|
G|------6---------6---------5---------------------|
D|-00-0-4-0--88-8-4-8--33-3-3-3-------------------|
A|-00-0-4-0--88-8-4-8--33-3-3-3-------------------|
D|-00-0---0--88-8---8--33-3---3--7-7-5-3-5-8-5-3--|

e|------------------------------------------------|
B|------6---------6---------5---------------------|
G|------6---------6---------5---------------------|
D|-00-0-4-0--88-8-4-8--33-3-3-3-------------------|
A|-00-0-4-0--88-8-4-8--33-3-3-3-----------------7-|
D|-00-0---0--88-8---8--33-3---3--7-7-5-3-6-8-10---|

e|------------------------------------------------|
B|------6---------6---------5---------------------|
G|------6---------6---------5---------------------|
D|-00-0-4-0--88-8-4-8--33-3-3-3-------------------|
A|-00-0-4-0--88-8-4-8--33-3-3-3-------------------|
D|-00-0---0--88-8---8--33-3---3--7-7-5-3-5-8-5-3--|

e|--------------------------------------------------|
B|------6---------6---------5-----------------------|
G|------6---------6---------5-----------------------|
D|-00-0-4-0--88-8-4-8--33-3-3-3------------------00-|
A|-00-0-4-0--88-8-4-8--33-3-3-3------------------00-|
D|-00-0---0--88-8---8--33-3---3--7-7-5-3-5-8-5-3-00-|

Well, Thats it!!
amy questions or comments


Important: The song above is NOT stored on the Chordie server. The original song is hosted at www.xguitar.com. Chordie works as a search engine and provides on-the-fly formatting. Chordie does not index songs against artists/composers will. To remove this song please click here.

This song is displayed as text-only. Transposing and tuning is only available for chordpro-songs.

Login - add to songbook

Rating click stars to rate

Layout
Accuracy

SHARE PAGE  




You need to log in to post comments