Guitar Tabs, Chords and Lyrics


Come On    Black Crowes



Author/Artist: Black Crowes
Title: Come on
Album: Lions
Transcribed by: Bob Stafford  8/22/01
This is not note for note, but it will get you there.

Intro Riff:
-7-7--x--7-7--x--7-9--|-7-7--x--7-7--x--7-9--|-7-7--x--7-7--x--7-9--|
-9-9--x--9-9--x--7-10-|-9-9--x--9-9--x--9-10-|-9-9--x--9-9--x--9-10-|
-9-9--x--9-9--x--9-9--|-9-9--x--9-9--x--9-9--|-9-9--x--9-9--x--9-9--|
-9-9--x--9-9--x--9----|-9-9--x--9-9--x--9----|-9-9--x--9-9--x--9----|
-7-7--x--7-7--x--7----|-7-7--x--7-7--x--7----|-7-7--x--7-7--x--7----|
-7-7--x--7-7--x--7----|-7-7--x--7-7--x--7----|-7-7--x--7-7--x--7----|

Riff 1
-7--5--7--5-
-9--7--7--5-
-9--7--8--6-
-9--7--9--7-
-7--5--9--7-
-7--5--7--5-

Verse:
---------------|----------------|----------------|---------------|
---2-----------|---2------------|---2------------|---------------|
-1-2-1-1-2p1-1-|-1-2-1-1-2p1----|-1-2-1-1-2p1-1--|---------------|
---2----------2|---2--------0-2-|---2----------2-|---------------|
---------------|----------------|----------------|-4-5p5p5-4-4---|
---------------|----------------|----------------|-------------5-|


-0-------------|----------------|-0--------------|--------------|--------------|
-2-------------|---2------------|-2--------------|--------------|--------------|
-2-1-1-2p1-1---|-1-2-1-1-2p1----|-2-1-1-2p1-1----|--------------|--------------|
-2----------2--|---2--------0-2-|-2----------2---|--------------|--------------|
-0-------------|----------------|-0--------------|-4-5p5p5-4-4--|-4 5p5p5-4-7--|
---------------|----------------|----------------|------------5-|------------0-|


Riff 2:

-4-\-2-/-9--\-7-|-4-\-2-/-9--\-7-|-4-\-2-/-9--\-7-|
-5-\-3-/-10-\-8-|-5-\-3-/-10-\-8-|-5-\-3-/-10-\-8-|
-4-\-2-/-9--\-7-|-4-\-2-/-9--\-7-|-4-\-2-/-9--\-7-|
----------------|----------------|----------------|
----------------|----------------|----------------|
----------------|----------------|----------------|



Important: The song above is NOT stored on the Chordie server. The original song is hosted at www.xguitar.com. Chordie works as a search engine and provides on-the-fly formatting. Chordie does not index songs against artists'/composers' will. To remove this song please click here.

This song is displayed as text-only. Transposing and tuning is only available for chordpro-songs.

Login - add to songbook

Rating click stars to rate

Layout
Accuracy

SHARE PAGE  




You need to log in to post comments