Guitar Tabs, Chords and Lyrics


Cypress Tree   Black Crowes

-2---0-0-0-----0----


-3---1-0-0h1---1----


-2---2-2-2-----0----

-----2-2-2-----2----
---------------3----
--------------------
-2---0---0-0-|-3-----------|-3-3p3(2)-0-2-|-0---0-0-3---|-3-3-3---3-3-3-------
-3---0h1-0-0-|-55-----3----|-3-3--(3)-3-3-|-0h1-0-0-5---|-3-5-3---3-5-3-------
-2---2---2-2-|-5-5---4-4---|-2-2--(2)-2-2-|-2---2-2-5---|-4-5-4---4-5-4-------
-----2---2-2-|-5--5--5--5--|--------------|-2---2-2-5---|-5-5-5---5-5-5-------
-------------|-3---3-5---5-|--------------|---------3---|-5-3-5---5-3-5-------
-------------|-3-----3-----|--------------|---------3---|-3-3-3---3-3-3-------
-1-1--2-2--3-|--------------|-1-1--2-2--3-|-------------|
-1-1--2-2--3-|--------------|-1-1--2-2--3-|-------------|
-2-2--3-3--4-|-5-5--6-6--7--|-2-2--3-3--4-|-5-5--6-6--7-|
-3-3--4-4--5-|-5-5--6-6--7--|-3-3--4-4--5-|-5-5--6-6--7-|
-3-3--4-4--5-|-3-3--4-4--5--|-3-3--4-4--5-|-3-3--4-4--5-|
-1-1--2-2--3-|--------------|-1-1--2-2--3-|-------------|
[G]       [B]      [G]       [C]      [G]        [B]                               [C]  [D]                 
-3-3-3--2---|-3-3-3--3---|-3-3-3---2---|-3\--3--3-3\--3--        3/5
-3-3-3--4---|-3-3-3--5---|-3-3-3---4---|-5\--3--5-5\--3--        5/7
-4-4-4--4---|-4-4-4--5---|-4-4-4---4---|-5\--4--5-5\--4-- X3     5/7
-5-5-5--4---|-5-5-5--5---|-5-5-5---4---|-5\--5--5-5\--5--        5/7
-5-5-5--2---|-5-5-5--3---|-5-5-5---2---|-3\--5--3-3\--5--        3/5
-3-3-3--2---|-3-3-3--3---|-3-3-3---2---|-3\--3--3-3\--3--        3/5

Outro:
[BG]   [G]   [CG]   [G]   [BG]   [G]  [CG]   [B/D]     

Important: The song above is NOT stored on the Chordie server. The original song is hosted at www.xguitar.com. Chordie works as a search engine and provides on-the-fly formatting. Chordie does not index songs against artists'/composers' will. To remove this song please click here.

Text color:
Chord color:
Chord grids: 
Font size:    
Page size: 

B B/D C D G
variations - click chord images

Login - add to songbook

Transpose chords

Tuning

Rating click stars to rate

Layout
Accuracy

SHARE PAGE  




You need to log in to post comments