Guitar Tabs, Chords and Lyrics


My War    Black Flag



Black Flag - My War
Submitted By: Silent Riot
EMail: coma210@hotmail.com


intro
e|----------------------------------------------------------------------------|
B|----------------------------------------------------------------------------|
G|----------------------------------------------------------------------------|
D|--14--------12--11-----------10--8-------------12---10--13---11--10---14--12|
A|------16--------------------------------------------------------------------|
E|---------11--------13----8---------9---10--11-------------------------------|

verse
e|----------------------------------------------------------------------------|
B|----------------------------------------------------------------------------|
G|----------------------------------------------------------------------------|
D|----------------------------------------------------------------------------|
A|----------------------------------------------------------------------------|
E|--2-2-2--5-2--2---4-4-4-7-4-4--7-7-7-7-110----9-9-9-9--12-9-9---------------|

bridge thing
e|----------------------------------------------------------------------------|
B|----------------------------------------------------------------------------|
G|----------------------------------------------------------------------------|
D|----------------------------------------------------------------------------|
A|--------------9-10----------8-9----------7-8--------------------------------|
E|--10-10-10-10-------9-9-9-9------8-8-8-8------5-7-5-7-----------------------|

[repeat intro in the middle of the song]
--
end part where he goes "your one of them! one of them!"
e|----------------------------------------------------------------------------|
B|----------------------------------------------------------------------------|
G|----------------------------------------------------------------------------|
D|----------------------------------------------------------------------------|
A|----------------------------------------------------------------------------|


Important: The song above is NOT stored on the Chordie server. The original song is hosted at www.xguitar.com. Chordie works as a search engine and provides on-the-fly formatting. Chordie does not index songs against artists/composers will. To remove this song please click here.

This song is displayed as text-only. Transposing and tuning is only available for chordpro-songs.

Login - add to songbook

Rating click stars to rate

Layout
Accuracy

SHARE PAGE  




You need to log in to post comments