Guitar Tabs, Chords and Lyrics


Nervous Breakdown    Black Flag



-------------------------------------------------------------------------------
NERVOUS BREAKDOWN - Black Flag
-------------------------------------------------------------------------------

By: Mark Woodruff HiTopMark@aol.com

Intro----------------------------------------------------------------------
B5 E5 B5 A5 D5 A5
1 & 2 & 3 & 4 & 1 & 2 & 3 & 4 & etc.
e:------------------------|------------------------|------------------------|
B:------------------------|------------------------|------------------------|
G:---------9-----7--------|---------7-----5--------|---------9-----7--------|
D:9--9--9--9-----7--9--9--|7--7--7--7-----5--7--7--|9--9--9--9-----7--9--9--|
A:9--9--9--7-----7--9--9--|7--7--7--5-----5--7--7--|9--9--9--7-----7--9--9--|
E:7--7--7-----------7--7--|5--5--5-----------5--5--|7--7--7-----------7--7--|
(w/ heavy distortion)

-------------------------- Verse Figure--------------------------------------
w/ Verse #1 Lyrics
(drums and bass enter)
e:------------------------|------------------------|------------------------|
B:------------------------|------------------------|------------------------|
G:---------7-----5--------|---------9-----7--------|---------7-----5--------|
D:7--7--7--7-----5--7--7--|9--9--9--9-----7--9--9--|7--7--7--7-----5--7--7--|
A:7--7--7--5-----5--7--7--|9--9--9--7-----7--9--9--|7--7--7--5-----5--7--7--|
E:5--5--5-----------5--5--|7--7--7-----------7--7--|5--5--5-----------5--5--|

------------------------------------------------------------------------------
e:------------------------|------------------------|------------------------|
B:------------------------|------------------------|------------------------|
G:---------9-----7--------|---------7-----5--------|---------9-----7--------|
D:9--9--9--9-----7--9--9--|7--7--7--7-----5--7--7--|9--9--9--9-----7--9--9--|
A:9--9--9--7-----7--9--9--|7--7--7--5-----5--7--7--|9--9--9--7-----7--9--9--|
E:7--7--7-----------7--7--|5--5--5-----------5--5--|7--7--7-----------7--7--|
I'm a--bout to

------------------------------------------------------------------------------

e:------------------------|------------------------|------------------------|
B:------------------------|------------------------|------------------------|
G:---------7-----5--------|---------9-----7--------|---------7-----5--------|
D:7--7--7--7-----5--7--7--|9--9--9--9-----7--9--9--|7--7--7--7-----5--7--7--|
A:7--7--7--5-----5--7--7--|9--9--9--7-----7--9--9--|7--7--7--5-----5--7--7--|
E:5--5--5-----------5--5--|7--7--7-----------7--7--|5--5--5-----------5--5--|
have a nervous breakdown my head really hurts

------------------------------------------------------------------------------

e:------------------------|------------------------|------------------------|
B:------------------------|------------------------|------------------------|
G:---------9-----7--------|---------7-----5--------|---------9-----7--------|
D:9--9--9--9-----7--9--9--|7--7--7--7-----5--7--7--|9--9--9--9-----7--9--9--|
A:9--9--9--7-----7--9--9--|7--7--7--5-----5--7--7--|9--9--9--7-----7--9--9--|
E:7--7--7-----------7--7--|5--5--5-----------5--5--|7--7--7-----------7--7--|
if I don't find a way outta here I'm gonna go

---------------------------Chorus-----------------------------------------------

e:------------------------|------------------------|------------------------|
B:------------------------|------------------------|------------------------|
G:---------7-----5--------|------------------------|------------------------|
D:7--7--7--7-----5--7--7--|5--5--5--5--7--7--7--7--|9--9--9--9--9--9--9--9--|
A:7--7--7--5-----5--7--7--|5--5--5--5--7--7--7--7--|9--9--9--9--9--9--9--9--|
E:5--5--5-----------5--5--|3--3--3--3--5--5--5--5--|7--7--7--7--7--7--7--7--|
go berserk 'cuz I'm cra---zy and I'm hurt

------------------------------------------------------------------------------
B5 A5 G5 A5\G5 A5\G5 G5 A5 B5
e:------------------------|------------------------|------------------------|
B:------------------------|------------------------|------------------------|
G:------------------------|------------------------|------------------------|
D:9--7--5-----7\5----7\5--|5--5--5--5--7--7--7--7--|9--9--9--9--9--9--9--9--|
A:9--7--5-----7\5----7\5--|5--5--5--5--7--7--7--7--|9--9--9--9--9--9--9--9--|
E:7--5--3-----5\3----5\3--|3--3--3--3--5--5--5--5--|7--7--7--7--7--7--7--7--|
head on my shoulders

------------------------------------------------------------------------------
B5 A5 G5 A5\G5 A5\G5 G5 A5 B5
e:------------------------|------------------------|------------------------|
B:------------------------|------------------------|------------------------|
G:------------------------|------------------------|------------------------|
D:9--7--5-----7\5----7\5--|5--5--5--5--7--7--7--7--|9--9--9--9--9--9--9--9--|
A:9--7--5-----7\5----7\5--|5--5--5--5--7--7--7--7--|9--9--9--9--9--9--9--9--|
E:7--5--3-----5\3----5\3--|3--3--3--3--5--5--5--5--|7--7--7--7--7--7--7--7--|
it's goin' berserk

---------------------------
B5
e:------------------------|
B:------------------------|
G:------------------------|
D:9--9--9--9--9--9--9--9--|
A:9--9--9--9--9--9--9--9--|
E:7--7--7--7--7--7--7--7--|

Then play:

Verse Figure with verse #2 Lyrics (12 measures)
Chorus (9 measures)
Verse Figure with verse #3 Lyrics (12 measures)
Chorus (9 measures)
Verse Figure with verse #4 Lyrics (12 measures)


Outro----------------------------------------------------------------------
G5 A5 B5 B5 A5 G5 A5\G5 A5\G5
e:------------------------|------------------------|------------------------|
B:------------------------|------------------------|------------------------|
G:------------------------|------------------------|------------------------|
D:5--5--5--5--7--7--7--7--|9--9--9--9--9--9--9--9--|9--7--5-----7\5----7\5--|
A:5--5--5--5--7--7--7--7--|9--9--9--9--9--9--9--9--|9--7--5-----7\5----7\5--|
E:3--3--3--3--5--5--5--5--|7--7--7--7--7--7--7--7--|7--5--3-----5\3----5\3--|
I don't care what ya ***in' think I don't care what ya ***

--------------------------------------------------------------------------
G5 A5 B5 B5 A5 G5 A5\G5 A5\G5
e:------------------------|------------------------|------------------------|
B:------------------------|------------------------|------------------------|
G:------------------------|------------------------|------------------------|
D:5--5--5--5--7--7--7--7--|9--9--9--9--9--9--9--9--|9--7--5-----7\5----7\5--|
A:5--5--5--5--7--7--7--7--|9--9--9--9--9--9--9--9--|9--7--5-----7\5----7\5--|
E:3--3--3--3--5--5--5--5--|7--7--7--7--7--7--7--7--|7--5--3-----5\3----5\3--|
in' say I'm so sick of ev'ry thing

-----------------------------------------------------------------------------
B5 B5 A5 G5 A5\G5 A5\G5 B5
e:------------------------|------------------------|------------------------|
B:------------------------|------------------------|------------------------|
G:------------------------|------------------------|------------------------|
D:9--9--9--9--9--9--9--9--|9--7--5-----7\5----7\5--|9--9--9--9--9--9--9--9--|
A:9--9--9--9--9--9--9--9--|9--7--5-----7\5----7\5--|9--9--9--9--9--9--9--9--|
E:7--7--7--7--7--7--7--7--|7--5--3-----5\3----5\3--|7--7--7--7--7--7--7--7--|
I just wan---na die

------------------------------------------------------------------------------
B5 A5 G5 A5\G5 A5\G5 B5
e:------------------------|------------------------|------------------------|
B:------------------------|------------------------|------------------------|
G:------------------------|------------------------|------------------------|
D:9--7--5-----7\5----7\5--|9-----------------------|------------------------|
A:9--7--5-----7\5----7\5--|9-----------------------|------------------------|
E:7--5--3-----5\3----5\3--|7-----------------------|------------------------|
(let ring for 2 measures)

---------------------------
B5
e:------------------------|
B:------------------------|
G:------------------------|
D:9-----------------------|
A:9-----------------------|
E:7-----------------------|



Important: The song above is NOT stored on the Chordie server. The original song is hosted at www.xguitar.com. Chordie works as a search engine and provides on-the-fly formatting. Chordie does not index songs against artists'/composers' will. To remove this song please click here.

This song is displayed as text-only. Transposing and tuning is only available for chordpro-songs.

Login - add to songbook

Rating click stars to rate

Layout
Accuracy

SHARE PAGE  




You need to log in to post comments