Wasted

Black Flag

 4/4
    Gtr I
 EEEEEEEEEEEEEEEEEEEEEEEEEEEEEEEE
||------------------|-----------------|-----------------|-------------------||
||o-----------------|-----------------|-----------------|------------------o||
||------------------|-----------------|-----------------|-------------------||
||------------7-x---|-----------7-x---|-----------7-x---|-----------7-x-----||
||o-7-7-7-7-7-5-x-7-|-7-7-7-7-7-5-x-7-|-7-7-7-7-7-5-x-7-|-7-7-7-7-7-5-x-7--o||
||--5-5-5-5-5-----5-|-5-5-5-5-5-----5-|-5-5-5-5-5-----5-|-5-5-5-5-5-----5---||


Verse
 EEEEEEEEEEEEEEEE
|-------------------------|-------------------------|
|-------------------------|-------------------------|
|-------------------------|-------------------------|
|-------------------------|-------------------------|
|-10-10-10-10-10-10-10-10-|-10-10-10-10-10-10-10-10-|
|--8--8--8--8--8--8--8--8-|--8--8--8--8--8--8--8--8-|


 EEEEEEEEEEEEEEEE
|-----------------|-----------------|
|-----------------|-----------------|
|-----------------|-----------------|
|-----------------|-----------------|
|-8-8-8-8-8-8-8-8-|-6-6-6-6-5-5-5-5-|
|-6-6-6-6-6-6-6-6-|-4-4-4-4-3-3-3-3-|


Chorus
 EEEEEEEEEEEEEEEEEEEEEEEEEEEEEEEE
||------------------|-----------------|-----------------|-------------------||
||o-----------------|-----------------|-----------------|------------------o||
||------------------|-----------------|-----------------|-------------------||
||------------7-x---|-----------7-x---|-----------7-x---|-----------7-x-----||
||o-7-7-7-7-7-5-x-7-|-7-7-7-7-7-5-x-7-|-7-7-7-7-7-5-x-7-|-7-7-7-7-7-5-x-7--o||
||--5-5-5-5-5-----5-|-5-5-5-5-5-----5-|-5-5-5-5-5-----5-|-5-5-5-5-5-----5---||


Verse
 EEEEEEEEEEEEEEEE
|-------------------------|-------------------------|
|-------------------------|-------------------------|
|-------------------------|-------------------------|
|-------------------------|-------------------------|
|-10-10-10-10-10-10-10-10-|-10-10-10-10-10-10-10-10-|
|--8--8--8--8--8--8--8--8-|--8--8--8--8--8--8--8--8-|


 EEEEEEEEEEEEEEEE
|-----------------|-----------------|
|-----------------|-----------------|
|-----------------|-----------------|
|-----------------|-----------------|
|-8-8-8-8-8-8-8-8-|-6-6-6-6-5-5-5-5-|
|-6-6-6-6-6-6-6-6-|-4-4-4-4-3-3-3-3-|


Chorus
 EEEEEEEEEEEEEEEEEEEEEEEEEEEEEEEE
||------------------|-----------------|-----------------|-------------------||
||o-----------------|-----------------|-----------------|------------------o||
||------------------|-----------------|-----------------|-------------------||
||------------7-x---|-----------7-x---|-----------7-x---|-----------7-x-----||
||o-7-7-7-7-7-5-x-7-|-7-7-7-7-7-5-x-7-|-7-7-7-7-7-5-x-7-|-7-7-7-7-7-5-x-7--o||
||--5-5-5-5-5-----5-|-5-5-5-5-5-----5-|-5-5-5-5-5-----5-|-5-5-5-5-5-----5---||


Outro
 EEEEEEEEEEEEEEEE
|-------------------------|-------------------------|
|-------------------------|-------------------------|
|-------------------------|-------------------------|
|-------------------------|-------------------------|
|-10-10-10-10-10-10-10-10-|-10-10-10-10-10-10-10-10-|
|--8--8--8--8--8--8--8--8-|--8--8--8--8--8--8--8--8-|


 Bb5G#5C5A5
  E E E E E E E E   E E E E E E E E   E H..
|-----------------|-----------------|----------*|
|-----------------|-----------------|----------*|
|-----------------|-----------------|----------*|
|-----------------|-----------------|-7--------*|
|-8-8-8-8-8-8-8-8-|-6-6-6-6-5-5-5-5-|-7--------*|
|-6-6-6-6-6-6-6-6-|-4-4-4-4-3-3-3-3-|-5--------*|


Duration Legend
---------------
W - whole; H - half; Q - quarter; E - 8th; S - 16th; T - 32nd; X - 64th; a - acciaccatura

+ - note tied to previous; . - note dotted; .. - note double dotted
Uncapitalized letters represent notes that are staccato (1/2 duration)
Irregular groupings are notated above the duration line
Duration letters will always appear directly above the note/fret number it represents the
duration for. Duration letters with no fret number below them represent rests. Multi-
bar rests are notated in the form Wxn, where n is the number of bars to rest for. Low
melody durations appear below the staff

Tablature Legend
----------------

h - hammer-on
p - pull-off
b - bend
pb - pre-bend
r - bend release (if no number after the r, then release immediately)
/\ - slide into or out of (from/to "nowhere")
s - legato slide
S - shift slide
- natural harmonic
(n) - artificial harmonic
n(n) - tapped harmonic
~ - vibrato
tr - trill
T - tap
TP - trem. picking
PM - palm muting
\n/ - tremolo bar dip; n = amount to dip
\n - tremolo bar down
n/ - tremolo bar up
/n\ - tremolo bar inverted dip
= - hold bend; also acts as connecting device for hammers/pulls
<> - volume swell (louder/softer)
x - on rhythm slash represents muted slash
o - on rhythm slash represents single note slash

Misc Legend
-----------

| - bar
|| - double bar
||o - repeat start
o|| - repeat end
*| - double bar (ending)
: - bar (freetime)
$ - Segno
& - Coda
Tempo markers - = BPM(8/16=s8/s16), where s8 = swing 8ths, s16 = swing 16ths


A5 Bb5 C5 E G#5
variations - click chord images
Transpose chords:
Tuning:
Cool service:
View: Size:
A  A  A
Rating:
Layout:
  • Currently 3/5 Stars.
  • 1
  • 2
  • 3
  • 4
  • 5
 
Accuracy:
  • Currently 3.7/5 Stars.
  • 1
  • 2
  • 3
  • 4
  • 5
 
click stars to rate
Chordie recommends:
Get acoustic guitar lessons and electric guitar lessons at JamPlay.com
Songbook:
Login to add this song to your songbook
Support the artist
Preview/buy this song
MSN Music
Why this non-profit ad?

 
login to add comments/video/corrections