Chordie logo

Battering Ram    Zakk Wylde's Black Label Society



Artist: Black Label Society
Song: Battering Ram
Album: 1919 Eternal
By: Skull Dragon




Dropped Db tuning


eb-------------------------------------------------------------------
Bb-------------------------------------------------------------------
Gb-------------------------------------------------------------------
Db-------------------------------------------------------------------
Ab--5-3-3-3-3-3-3-3--------------------------------------------------
Db--0-0-0-0-0-0-0-0--------------------------------------------------
   |-------8-------|
        repeat
Add in artificial harmonics when necessary.


eb-------------------------------------------------------------------
Bb-------------------------------------------------------------------
Gb-------------------------------------------------------------------
Db-------------------------------------------------------------------
Ab-----5--3--6-5-3-1-0-3-1-0-1-1-------------------------------------


Important: The song above is NOT stored on the Chordie server. The original song is hosted at www.xguitar.com. Chordie works as a search engine and provides on-the-fly formatting. Chordie does not index songs against artists/composers will. To remove this song please click here.

This song is displayed as text-only. Transposing and tuning is only available for chordpro-songs.

Login - add to songbook

Rating click stars to rate

Layout
Accuracy

SHARE PAGE  

You need to log in to post comments