Chordie logo


Mass Murder Machine    Zakk Wylde's Black Label Society



the tuning on this is all string 1/2 step down with
low E down another whole step (c#)

------------------------------------------------------------------------------
------------------------------------------------------------------------------
-----------------------5------------------------------------------------------
------3----------3-----5-------3----------3-----------------------------------
--3-5---3-5--3-5---3-5-3---3-5---3-5--3-5---------------3-0-------------------
---------------------------------------------5b6r-5/6\\5-3-0-------------------
  A                  repeat 8x

------------------------------------------------------------------------------
------------------------------------------------------------------------------
----7----5--3-----2--2----5-------7----5--3-----2--2----5---------------------
---7----5---3-----2--2----5------7----5---3-----2--2----5-----x\\--------------
--5----3----1-----0--0----3-----5----3----1-----0--0----3-----x\\--------------
---------------0----------------------------------------------x\\--------------
  B                                                           ~~~PickScrape

 Repeat A 8x then B then A 4x





------------------------------------------------------------------------------
-------3---------3--------3-------3-------3-------5-5-------------------------
--7----3----7----3----7---3---7---3---7---3---7---5-5-------------------------
--7----3----7----3----7---3---7---3---7---3---7---5-5--------x\\---------------
--5----1----5----1----5---1---5---1---5---1---5---3-3--------x\\---------------
--0---------0---------0-------0-------0-------0--------------x\\---------------
                                                             ~~~PickScrape



Important: The song above is NOT stored on the Chordie server. The original song is hosted at www.xguitar.com. Chordie works as a search engine and provides on-the-fly formatting. Chordie does not index songs against artists/composers will. To remove this song please click here.

This song is displayed as text-only. Transposing and tuning is only available for chordpro-songs.

Login - add to songbook

Rating click stars to rate

Layout
Accuracy

SHARE PAGE  




You need to log in to post comments