Guitar Tabs, Chords and Lyrics


Phoney Smiles and Fake Hellos    Zakk Wylde's Black Label Society



Author/Artist: Black Label Society
Title: Phoney Smiles and Fake Hellos
Album: Stronger Than Death
Transcribed by: Mark Monahan
Email: mqes666@hotmail.com
My Site: http://www.geocities.com/maidenguitar666/

Intro... with Tremelo effect and distortion.
----------------|---------------|
----------------|---------------|
-9-----7----2---|---------------|
-9-----7----2---|---9----7----2-|
-7-----5----0---|---9----7----2-|
----------------|---7----5----0-|


Main Riff... used in verses and stuff. Played only with distortion.
-------------------------------|-------------------------------|
-------------------------------|-------------------------------|
-------------------------------|-------------------------------|
-------------------------------|-------------------------------|
-------------------------------|-------------------------------|
-0---0-0-0-0-0--5b^r-4-5-5-5^--|-0--0-0-0-0-0--5b^r-4-5-5-5^---|

That's about it. I havent figured out the chorus part of it yet.
If you have any questions, comments, contributions, etc...,
email me at mqes666@hotmail.com

ROCK ON!


Important: The song above is NOT stored on the Chordie server. The original song is hosted at www.xguitar.com. Chordie works as a search engine and provides on-the-fly formatting. Chordie does not index songs against artists/composers will. To remove this song please click here.

This song is displayed as text-only. Transposing and tuning is only available for chordpro-songs.

Login - add to songbook

Rating click stars to rate

Layout
Accuracy

SHARE PAGE  




You need to log in to post comments