Guitar Tabs, Chords and Lyrics


Destruction Overdrive    Zakk Wylde's Black Label Society










Artist: Zakk Wylde
Album: The Blessed Hellride
Title: Destruction Overdrive

Tabbed By: Jay Valena (jayvalena@yahoo.com)

Tuning:Eb Ab Db Gb Bb Eb


Intro
Delay                  3x
|---------||-------------||---------------|  \\
|---------||-------------||---------------|  |
|-7/--7-/-||o-----------o||---------------|  |
|---------||o-----------o||-4-2---2-------|  |
|---------||-------------||-----4---4-3-2-|  |
|---------||-2-2-2-2h0-2-||---------------|  |
                     Ping                    |
                                             |PLay this Whole riff twice
             2x                              |
||-------------||--------------------|       |
||-------------||--------------------|       |
||o-----------o||-4--4--4--4--2------|       |
||o-----------o||-4--4--4--4--2------|       |
||-------------||-2--2--2--2--0------|       |
||-2-2-2-2h0-2-||--------------------|       |
           Ping  Bend These^                 /


Verse 1                    Repeat As Necessary
||--------------------------------------------||
||--------------------------------------------||
||o------------------------------------------o||
||o---------------------------4---2----------o||
||------------------------------------3---2---||
||-2-2-2-2-2-2-2-2-2-2-2-2--2---2---2---2-----||


Chorus
             3x                              2x                         \\
||-------------||---------------||-------------||--------------------|  |
||-------------||---------------||-------------||--------------------|  |
||o-----------o||---------------||o-----------o||-4--4--4--4--2------|  |Play this Twice
||o-----------o||-4-2---2-------||o-----------o||-4--4--4--4--2------|  |
||-------------||-----4---4-3-2-||-------------||-2--2--2--2--0------|  |
||-2-2-2-2h0-2-||---------------||-2-2-2-2h0-2-||--------------------|  |
           Ping                            Ping  Bend These^            /


Verse 2                    Repeat As Necessary
||--------------------------------------------||
||--------------------------------------------||
||o------------------------------------------o||
||o---------------------------4---2----------o||
||------------------------------------3---2---||
||-2-2-2-2-2-2-2-2-2-2-2-2--2---2---2---2-----||


Chorus
             3x                              2x                         \\
||-------------||---------------||-------------||--------------------|  |
||-------------||---------------||-------------||--------------------|  |
||o-----------o||---------------||o-----------o||-4--4--4--4--2------|  |Play this Twice
||o-----------o||-4-2---2-------||o-----------o||-4--4--4--4--2------|  |
||-------------||-----4---4-3-2-||-------------||-2--2--2--2--0------|  |
||-2-2-2-2h0-2-||---------------||-2-2-2-2h0-2-||--------------------|  |
           Ping                            Ping  Bend These^            /

Bridge
                  8x
||---------------0--||
||---------------0--||
||o-4--4--4-4-4--2-o||
||o-4--4--4-4-4--2-o||
||--2--2--2-2-2--0--||
||------------------||


Riff Played Under The Solo
                                            4x
||--------------------------------------------||
||--------------------------------------------||
||o------------------------------------------o||
||o---------------------------4---2----------o||
||------------------------------------3---2---||
||-2-2-2-2-2-2-2-2-2-2-2-2--2---2---2---2-----||


Chorus 3
             3x                              2x                         \\
||-------------||---------------||-------------||--------------------|  |
||-------------||---------------||-------------||--------------------|  |
||o-----------o||---------------||o-----------o||-4--4--4--4--2------|  |Play this until the end
||o-----------o||-4-2---2-------||o-----------o||-4--4--4--4--2------|  |
||-------------||-----4---4-3-2-||-------------||-2--2--2--2--0------|  |
||-2-2-2-2h0-2-||---------------||-2-2-2-2h0-2-||--------------------|  |
           Ping                            Ping  Bend These^            /

Then the last time play it like this

             3x                              2x                Vibrato
||-------------||---------------||-------------||--------------------|
||-------------||---------------||-------------||--------------17~---|
||o-----------o||---------------||o-----------o||-4--4--4--4---------|
||o-----------o||-4-2---2-------||o-----------o||-4--4--4--4---------|
||-------------||-----4---4-3-2-||-------------||-2--2--2--2---------|
||-2-2-2-2h0-2-||---------------||-2-2-2-2h0-2-||--------------------|


Important: The song above is NOT stored on the Chordie server. The original song is hosted at www.xguitar.com. Chordie works as a search engine and provides on-the-fly formatting. Chordie does not index songs against artists/composers will. To remove this song please click here.

This song is displayed as text-only. Transposing and tuning is only available for chordpro-songs.

Login - add to songbook

Rating click stars to rate

Layout
Accuracy

SHARE PAGE  




You need to log in to post comments