Chordie logo

Final Solution    Zakk Wylde's Black Label Society



Tuning: B A D G B E

Verse/Main Riff
E|-----------------------------------------------------------|
B|-----------------------------------------------------------|
G|-4----------4----------------------------------------------|
D|-3----------3----------------------------------------------|
A|-2----------2----------------------------------------------|
B|-0--0-0-0---0--0-0-0--0-6-5-3-5-6-5-3----------------------|
      pm...      pm...  ...............

E|-----------------------------------------------------------|
B|-----------------------------------------------------------|
G|-----------------------------------------------------------|
D|-2----------2----------------------------------------------|
A|-2----------2----------------------------------------------|
B|-0--0-0-0---0--0-0-0---0-0-0-0-3^-0-3^---------------------|
      pm...      pm...   .......   ..   	      Repeat


Chorus
E|-----------------------------------------------------------|
B|-----------------------------------------------------------|
G|--10--5---4------------------------------------------------|
D|--10--5---4------------------------------------------------|
A|---8--3---2--0-0-0-0-0-0-0-0-------------------------------|
B|-------------0-0-0-0-0-0-0-0-------------------------------|
	       pm.............


Interlude Riff/ Solo Backing Riff
E|-----------------------------------------------------------|
B|-----------------------------------------------------------|
G|----4--4---6-7--2------------------------------------------|
D|----4--4---6-7--2------------------------------------------|
A|----2--2---4-5--0------------------------------------------|


Important: The song above is NOT stored on the Chordie server. The original song is hosted at www.xguitar.com. Chordie works as a search engine and provides on-the-fly formatting. Chordie does not index songs against artists/composers will. To remove this song please click here.

This song is displayed as text-only. Transposing and tuning is only available for chordpro-songs.

Login - add to songbook

Rating click stars to rate

Layout
Accuracy

SHARE PAGE  



You need to log in to post comments