Guitar Tabs, Chords and Lyrics
Major upgrade!! After one year development the new version of Chordie is now online! Please give feedback.


Stillborn   Black Label Society

 
 |----------------------------|---------------------------|
 |----------------------------|---------------------------|
 |----------------------------|---------------------------|
 |----------------------------|---------------------------| x16
 |----------------------------|---------------------------|
 |----2-2-2-2-2---2-2-2-2-2---|---2-2-2-2-2---2-2-2-2-2---|
 ph [-------------------------------------------------]

 


 


 Chorus 1 (The feelings I once felt...)


 

 
 |----------------------------------|----------------------------|
 |----------------------------------|----------------------------|
 |----------------------------------|----------------------------|
 |----------------------------------|----------------------------|
 |---2---2---2---2---2---2---2---2--|-2---2---2---2---2---2---2--|
 |---0---0---0---0---0---0---0---0--|-0---0---0---0---0---0---0--|

 


 PM ..... ..... ...... ..... .


 


 Repeat Main Riff x16


 Repeat Chorus 1


 Repeat Main Riff


 


 Gone....


 

 
 |----------------------------|-------------------------------|
 |----------------------------|-------------------------------|
 |----------------------------|-------------------------------|
 |----------------------------|-------------------------------|
 |----------------------------|-------------------------------|
 |----2-2-2-2-2---2-2-2-2-2---|---2-2-2-2-2---2-2-2-2-2---20\\-|
 ph [---------------------]

 


 


 Main chorus


 

 
 |-------------------------------------|----------------------------|
 |-----------------3--------------5----|----------------------------|
 |-----------------2--------x--x--2----|----4\\5\\4-------4\\5\\4----2--|
 |--4--------x--x--0--------x--x--0----|-------------------------2--|
 |--4--------x--x--0-------------------|----2\\3\\2-------2\\3\\2----0--|
 |--2--------x--x----------------------|------------0---------------|

 


 PM .


 


 

 
 |-------------------------------------|-----------------------------------|
 |-----------------3--------------5----|----x------------------------------|
 |-----------------2--------x--x--2----|----x------------------------------|
 |--4--------x--x--0--------x--x--0----|----x------------------------------| x2
 |--4--------x--x--0-------------------|------0---0---0---0---0---0---0----|
 |--2--------x--x----------------------|------0---0---0---0---0---0---0----|

 


 PM .........................


 


 Solo


 


 

 
 |----------------------------|---------------------------------|
 |----------------------------|------------^--------^-----------|
 |----------------------------|-------2-4-4--------4-4p2^^^^^^^^|
 |--2h4p2h4p2h4p2-(3x'2)-/14/-|---2-4---------------------------|
 |------------------------sl.-|---------------------------------|
 |----------------------------|---------------------------------|
 |--------------------------------------------------------------|
 |--------------------------------------------------------------|
 |---------------------------------------------16p14-16---------|
 |------------------------------------14-15-16------------------|
 |------------------12-13-14-14-15-16---------------------------|
 |--14/7--12-13-14----------------------------------------------|
 |-----------------------------------------b--------b-----------|
 |-----------------------------14----14-17^--p14h17^------------|
 |--------------------14-15-16----16----------------------------|
 |-----------14-15-16-------------------------------------------|
 |--14-15-16----------------------------------------------------|
 |--------------------------------------------------------------|
 |-----b--14-17-14----b---14-17-14----b---14-17-14---b----------|
 |--17^-------------17^------------17^-------------17^----------|
 |--------------------------------------------------------------|
 |--------------------------------------------------------------|
 |--------------------------------------------------------------|
 |--------------------------------------------------------------|
 |--14-17-/21\\19p14-----b--14-16-14----17-16-14-19-17-14-----b---|
 |--------sl.-sl.----17^------------17--------------------17^----|
 |---------------------------------------------------------------|
 |---------------------------------------------------------------|
 |---------------------------------------------------------------|
 |---------------------------------------------------------------|
 |---------------------------------------------------------------|
 |---b-2h5p2--b--2h5p2--b-------------------^^^------------------|
 |-4^--------4^-------4^-------4-4-4-4-4-4p-2--------------------|
 |---------------------------------------------------------------|
 |---------------------------------------------------------------|
 |---------------------------------------------------------------|
 |-------4h5h7---------7h9h10-------5h7h9----------9h10h12-------|
 |-3h5h7--------7h9h10--------5h7h9--------9h10h12---------------|
 |---------------------------------------------------------------|
 |---------------------------------------------------------------|
 |---------------------------------------------------------------|
 |---------------------------------------------------------------|
 |----------12h14h15----------12h14h15---------12h14h15-------b--|
 |-12h13h15----------12h13h15----------12h13h15------------17^---|
 |---------------------------------------------------------------|
 |---------------------------------------------------------------|
 |---------------------------------------------------------------|
 |---------------------------------------------------------------|


Important: The song above is NOT stored on the Chordie server. The original song is hosted at www.xguitar.com. Chordie works as a search engine and provides on-the-fly formatting. Chordie does not index songs against artists'/composers' will. To remove this song please click here.

This song is displayed as text-only. Transposing and tuning is only available for chordpro-songs.
Rate #1 of 4 versions

Jango Player

Login - add to songbook

SHARE PAGE  




You need to log in to post comments