Chordie logo

We Live No More    Zakk Wylde's Black Label Society



Artist: Black Label Society
Album: The Blessed Hellride
Title: We Live No More


Tabbed By: Anders Nyberg  solo by: Evilizer (Parasite-SDMF)
Modified by: Skull Dragon


Tuning: A=430hz

|----------------------------------------------------------------|
|----------------------------------------------------------------|
|----------------------------------------------------------------|
|------------------DRUM INTRO------------------------------------|
|----------------------------------------------------------------|
|----------------------------------------------------------------|


Vers/Main Riff
Eb|--------------------------------------------------------------|
Bb|--------------------------------------------------------------|
Gb|-4-4-4-4/--6-6-6-6--------------------------------------------|
Db|-4-4-4-4/--6-6-6-6--4-4-4-4-----6-6-6\------------------------|
Ab|-2-2-2-2/--4-4-4-4--4-4-4-4-----6-6-6\------------------------|
Eb|--------------------2-2-2-2/----4-4-4\------------------------|


Eb|--------------------------------------------------------------|
Bb|--------------------------------------------------------------|
Gb|-4-4-4-4/--6-6-6-6--------------------------8--7--------------|
Db|-4-4-4-4/--6-6-6-6--4-4-4-4/----6-6-6\------8--7--------------|
Ab|-2-2-2-2/--4-4-4-4--4-4-4-4/----6-6-6\------6--5--------------|
Eb|--------------------2-2-2-2/----4-4-4\------------------------|
							  Repeat
Guitar 2 On Intro
Eb|---------------------|
Bb|---------------------|
Gb|-18--16~-------------|
Db|-----------18--16~---|
Ab|---------------------|
Eb|---------------------|



Chorus
Eb|-------------------------------------------------------------------------------------------|
Bb|-------------------------------------------------------------------------------------------|
Gb|-4--4/6\4-----------------------------------4--4/6\4----------------4--4/6\4--4-4-4-4--6\--|
Db|-4--4/6\4--4--4/6\4-------------------------4--4/6\4--4--4/6\4------4--4/6\4--4-4-4-4--6\--|
Ab|-2--2/4\2--4--4/6\4-------------------------2--2/4\2--4--4/6\4------2--2/4\2--2-2-2-2--4\--|
Eb|-----------2--2/4\2---------------------0-0-----------2--2/4\2-----------------------------|
      AHHHAHH   AHHHAHH choose what you...        AHHHAHH AHHHAHH choose...
let the gathering..
LISTEN!




  |picking|							(vib)
|-------------------------------------------------------------------|
|-19---------19--------------------19---------19b-19b-19b-19b-19b---|
|-18b-----------18bh16--16-18-16---18b--18-16-----------------------|
|---------------------18--------------------------------------------|
|-------------------------------------------------------------------|
|-------------------------------------------------------------------|


	(staccato)
|-------------------------------------------------------|
|-4h7p4-7b--(repeat)--(some notes)----------------------|
|----------------------------------4h6bt11--------------|
|-------------------------------------------------------|
|-------------------------------------------------------|
|-------------------------------------------------------|


*it's the idea

|-------------------|-------------------|-------------3-6-3------|
|-------------------|-------------3-6-3-|-3-5-6-3-5-6------------|
|-------------3-5-3-|-3-4-5-3-4-5-------|------------------------|
|-3-4-5-3-4-5-------|-------------------|------------------------|
|-------------------|-------------------|------------------------|
|-------------------|-------------------|------------------------|




|-16h19p16-----------------------------------------------------|
|----------19b-(repeat)--19b-19-16-----------------------------|
|----------------------------------18b-18-16-------------------|
|--------------------------------------------18-16-16h18-------|
|--------------------------------------------------------------|
|--------------------------------------------------------------|






End song with
Eb|---------------------|
Bb|---------------------|
Gb|---------------------|
Db|---------------------|
Ab|-4-2---2-------------|


Important: The song above is NOT stored on the Chordie server. The original song is hosted at www.xguitar.com. Chordie works as a search engine and provides on-the-fly formatting. Chordie does not index songs against artists/composers will. To remove this song please click here.

This song is displayed as text-only. Transposing and tuning is only available for chordpro-songs.

Login - add to songbook

Rating click stars to rate

Layout
Accuracy

SHARE PAGE  



You need to log in to post comments