Guitar Tabs, Chords and Lyrics


Born to Lose    Zakk Wylde's Black Label Society



BLACK LABEL SOCIETY - BORN TO LOSE
(Sonic Brew, 1999)

Key
= after note = vibrato
^ after note = heavy vibrato
\\ = slide down
/ = slide up
+ = tap
h = hammer
p = pull
n = natural harmonic
s = pinching harmonic (squeal)
* = tremolo pick
t = trill
b = bend
|-3-| = triplet

n number above the tab = play the first part then the first finishing part
			 play the first part a second time and then play the second finishing part
			 etc.

Riff 1

E --------------------------------------------------------
B --------------------------------------------------------
G --------------------------------------------------------
D ----------------------------------------------5h7-5-----
A -5-7-5-7---5--------------5-7-5-7---------5---------7-5-
E -0-0-0-0------7-6-0-5-3===0-0-0-0----5==7---7-----------

Riff 1A

E ---------------------------------------------------------------
B -10b12--10b12--10b12-10-10b12---------10-12--------------------
G -----------------------------------12-------12==9--------------
D ---------------------------------------------------------------
A ---------------------------------------------------------------
E ---------------------------------------------------------------

Riff 2

E -----------------------------------------------------------------------------------------------
B -----------------------------------------------------------------------------------------------
G -9----9---9-9--9--9--5-----5-5----5--5--5--5--9----9---9-9--11--12--5-----5-5---5-5--4--4-7-7--
D -9----9---9-9--9--9--5-----5-5----5--5--5--5--9----9---9-9--11--12--5-----5-5---5-5--4--4-7-7--
A -7----7---7-7--7--7--3-----3-3----3--3--3--3--7----7---7-7--9 --10--3-----3-3---3-3--2--2-5-5--
E -0---------------------------------------------------------------------------------------------

E ------------------------------------------------------------------
B ------------------------------------------------------------------
G -9----9---9-9--9--9--5-----5-5----5--5--5--5----------------------
D -9----9---9-9--9--9--5-----5-5----5--5--5--5----------------------
A -7----7---7-7--7--7--3-----3-3----3--3--3--3--2====1====----------
E --------------------------------------------------------5====3====

Riff 2A

E -----------------------------------------------------------------------------------------------
B -----------------------------------------------------------------------------------------------
G -9----9---9-9--9--9--5-----5-5----5--5--5--5--9----9---9-9--11--12--5-----5-5---5-5--4--4-7-7--
D -9----9---9-9--9--9--5-----5-5----5--5--5--5--9----9---9-9--11--12--5-----5-5---5-5--4--4-7-7--
A -7----7---7-7--7--7--3-----3-3----3--3--3--3--7----7---7-7--9 --10--3-----3-3---3-3--2--2-5-5--
E -0---------------------------------------------------------------------------------------------

E --------------------------------------------------------------------------------------------------
B --------------------------------------------------------------------------------------------------
G -9----9---9-9--9--9--5-----5-5----5--5--5--5------------------------------------------------------
D -9----9---9-9--9--9--5-----5-5----5--5--5--5------------------------------------------9----8----7-
A -7----7---7-7--7--7--3-----3-3----3--3--3--3--2====1====----------2====1====----------9----8----7-
E --------------------------------------------------------5====3====----------5====3====7----6----5-

Riff 3

E -------------------------------------------------
B -------------------------------------------------
G -------------------------------------------------
D -------------------------------------8-8-7-5-----
A -5-7-7-7-5---5-7-7-7-5---5-7-7-7-5-----------7-5-
E -----------7-----------7-----------7-------------

Riff 3A

E --------------------------------------------
B --------------------------------------------
G --------------------------------------------
D --------------------------------------------
A -5-7-7-7-5---5-7-7-7-5---5-7-7-7-5---5------
E -----------7-----------7-----------7--------

Riff 4

E -------------------------------------------------------------------------------------------------
B -------------------------------------------------------------------------------------------------
G -------------------------------------------------------------------------------------------------
D -8-8-8-8-8-8-8-8-8-8-8-8-8-8-8-8-8-8-8-8-8-8-8-8-------------------------------------------------
A -8-8-8-8-8-8-8-8-8-8-8-8-8-8-8-8-8-8-8-8-8-8-8-8-5-7-7-7-5---5-7-7-7-5---5-7-7-7-5---5-7-7-7-5---
E -6-6-6-6-6-6-6-6-6-6-6-6-6-6-6-6-6-6-6-6-6-6-6-6-----------7-----------7-----------7-----------7-

Riff 4A

E -------------------------------------------------
B -------------------------------------------------
G -------------------------------------------------
D -8-8-8-8-8-8-8-8-8-8-8-8-8-8-8-8-8-8-8-8-8-8-8-8-
A -8-8-8-8-8-8-8-8-8-8-8-8-8-8-8-8-8-8-8-8-8-8-8-8-
E -6-6-6-6-6-6-6-6-6-6-6-6-6-6-6-6-6-6-6-6-6-6-6-6-

Order

Riff 1 x 2
Riff 1/1A x 2
Riff 1 x 4
Riff 2 x 1
Riff 1/1A x 2
Riff 1 x 4
Riff 2 x 1
Riff 3 x 3
Riff 3A x 1
Riff 3 x 10
Solo over Riff 4 x 3
Solo over Riff 4A x 1
Riff 1/1A x 2
Riff 1 x 4
Riff 2A x 1



Important: The song above is NOT stored on the Chordie server. The original song is hosted at www.xguitar.com. Chordie works as a search engine and provides on-the-fly formatting. Chordie does not index songs against artists'/composers' will. To remove this song please click here.

This song is displayed as text-only. Transposing and tuning is only available for chordpro-songs.

Login - add to songbook

Rating click stars to rate

Layout
Accuracy

SHARE PAGE  




You need to log in to post comments