Chordie logo

Hey You (Batch of Lies)    Zakk Wylde's Black Label Society



Artist: Black Label Society
Song: Hey You (Batch of Lies)
Album: Sonic Brew

Drop D Tuning

^=pinch harmonic
b=bend
/=slide
p=pull off
h=hammer on
~=vibrato
PM=palm mute

Intro 2x
|-----------------------------------------------------------------------------------|
|-----------------------------------------------------------------------------------|
|-----------------------------------------------------------------------------------|
|-----------------------------------------------------------------------------------|
|---0--2--3--------------------5-3--------------------------------------------------|
|---0--2--3---5^--5^--3^--5^---5-3--------------------------------------------------|

|-----------------------------------------------------------------------------------|
|-----------------------------------------------------------------------------------|
|-----------------------------------------------------------------------------------|
|-----------------------------------------------------------------------------------|
|---0-0-0-0-0--2--3---3-5-5-3-5-5-3-/6-6-6-6-6\\-5-3---0-----------------------------|
|---0-0-0-0-0--2--3---3-5-5-3-5-5-3/6-6-6-6-6-6\\5-3---0-----------------------------|

Chrous 2x
|------1--------3/5\\3-----0--------3------1---------|
|----3--3------3-----------1--------3------1--------|
|--2-----2----2---------0---0---------------2-------|
|-0--------0-3---------2-----2----------------------|
|---------------------3-----------------------------|
|------------------------------3/5-----3------------|


|-----1-----3/5\\3-----0-------3---------------------|
|----3-3---3-----------1------3---------------------|
|---2---2-2---------0---0-----4---------------------|
|--0-----3---------2-----2--------------------------|
|-----------------3-----------5---------------------|
|-0---------------------------5---------------------|
                              let ring

|------1--------3/5\\3-----0--------3------1---------|
|----3--3------3-----------1--------3------1--------|
|--2-----2----2---------0---0---------------2-------|
|-0--------0-3---------2-----2----------------------|
|---------------------3-----------------------------|
|------------------------------3/5-----3------------|


|-----1-----3/5\\3----------------------|
|----3-3---3---------------------------|
|---2---2-2---------5-5-5-5-5-5-5-5-5--|
|--0-----3----------5-5-5-5-5-5-5-5-5--|
|-------------------3-3-3-3-3-3-3-3-3--|
|-0------------------------------------|
                    PM

Chorus 2x

|-----------------------------------------------------------------------------------|
|-----------------------------------------------------------------------------------|
|-----------------------------------------------------------------------------------|
|-----------------------------------------------------------------------------------|
|---0--2--3--------------------5-3--------------------------------------------------|
|---0--2--3---5^--5^--3^--5^---5-3--------------------------------------------------|

|-----------------------------------------------------------------------------------|
|-----------------------------------------------------------------------------------|
|-----------------------------------------------------------------------------------|
|-----------------------------------------------------------------------------------|
|---0-0-0-0-0--2--3---3-5-5-3-5-5-3-/6-6-6-6-6\\-5-3---0-----------------------------|
|---0-0-0-0-0--2--3---3-5-5-3-5-5-3/6-6-6-6-6-6\\5-3---0-----------------------------|

Solo
|-----------------------------------------------------------------------------------|
|-----------------------------------------------------------------------------------|
|--9~--------------7~----------------5~---------------------------------------------|
|-----------------------------------------------------------------------------------|
|-----------------------------------------------------------------------------------|
|-----------------------------------------------------------------------------------|

|-----------------------------------------------------------------------------------|
|------------10h12p10------------10h12p10-------------10h12-12b--12-10--------------|
|-----------------------------------------------------------------------11-11~------|
|--10h12p10------------10h12p10------------10h12p10---------------------------------|
|-----------------------------------------------------------------------------------|
|-----------------------------------------------------------------------------------|

|-----------------------------------------------------------------------------------|
|------------12h14p12------------12h14p12------------12h14-14b-14b-14-12-15b~-------|
|-----------------------------------------------------------------------------------|
|--12h14p12------------12h14p12------------12h14p12---------------------------------|
|-----------------------------------------------------------------------------------|
|-----------------------------------------------------------------------------------|

|--17h20p17h20p17h20p17h20p17h20p17h20p17h20p17h20p17h20p17h20p17h20p17h20p17h20p---|

|-----------------------------------------------------------------------------------|
|-----------------------------------------------------------------------------------|
|-----------------------------------------------------------------------------------|
|-----------------------------------------------------------------------------------|
|-----------------------------------------------------------------------------------|
                         pick  really  fast
|--17h20p17h20p17h20p17--20--------------19--------19b-19b-19b-19b-19b19n-19--------|
|-----------------------------------------------------------------------------------|
|-----------------------------------------------------------------------------------|
|-----------------------------------------------------------------------------------|
|-----------------------------------------------------------------------------------|
|-----------------------------------------------------------------------------------|

|--20p17---17-----------------------------------------------------------------------|
|-------20---20-17------------------------------------------------------------------|
|------------------19-17-19-19^~----------------------------------------------------|
|-----------------------------------------------------------------------------------|
|-----------------------------------------------------------------------------------|
|-----------------------------------------------------------------------------------|

Chorus 2x

|-----------------------------------------------------------------------------------|
|-----------------------------------------------------------------------------------|
|-----------------------------------------------------------------------------------|
|-----------------------------------------------------------------------------------|
|---0--2--3--------------------5-3--------------------------------------------------|
|---0--2--3---5^--5^--3^--5^---5-3--------------------------------------------------|

|-------------------------------------------------------------3-3-------------------|
|-------------------------------------------------------------1-1-------------------|
|-------------------------------------------------------------2-2-------------------|
|-------------------------------------------------------------0-0-------------------|
|---0-0-0-0-0--2--3---3-5-5-3-5-5-3-/6-6-6-6-6\\-5-3---------------------------------|


Important: The song above is NOT stored on the Chordie server. The original song is hosted at www.xguitar.com. Chordie works as a search engine and provides on-the-fly formatting. Chordie does not index songs against artists/composers will. To remove this song please click here.

This song is displayed as text-only. Transposing and tuning is only available for chordpro-songs.

Login - add to songbook

Rating click stars to rate

Layout
Accuracy

SHARE PAGE  

You need to log in to post comments