Guitar Tabs, Chords and Lyrics


Evil Woman   Black Sabbath



[#]#                     From The Headless Cross Tab Page                     [#]#
Started: 15:20 10/20/00
Finished: 17:03 10/20/00
Black Sabbath - Evil Woman
From Black Sabbath's "Black Sabbath" Album Feb., 1970 (Japanese release)
Tuning Info: Standard Tuning, 440Hz, Moderate 122 beats/min
Note: Lyrics and additional guitar parts may not align due to space constraints
Lyrics may be inaccurate.
Intro
(mf)
D s\ G A#
----------------------------------------------------
--------------6~~~/(14\10)----4-3-4p3---------------
---------(3)/5-----------------------5-3~~~---------
-12-s\-3-------------------6------------------------
-12-s\-3-------------------6------------------------
-10-s\-1-------------------4------------------------

[F]    [G]           [F]    [G]           [F]    [G] [F] [G]                                                                                  
---------------------------------------------------------
---------------------------------------------------------
---------------------------------------------------------
-3-/-5----------3-/-5----------3-/-5----------3-/-5------
-3-/-5----------3-/-5----------3-/-5----------3-/-5------
-1-/-3----------1-/-3----------1-/-3----------1-/-3------

[F]    [G]           [F]    [G]           [F]    [G] [F] [G]                                                                                  
---------------------------------------------------------
---------------------------------------------------------
---------------------------------------------------------
-3-/-5----------3-/-5----------3-/-5----------3-/-5------
-3-/-5----------3-/-5----------3-/-5----------3-/-5------
-1-/-3----------1-/-3----------1-/-3----------1-/-3------

I see a look of evil in your eyes
[F]    [G]           [F]    [G]           [F]    [G] [F] [G]                                                                                  
---------------------------------------------------------
---------------------------------------------------------
---------------------------------------------------------
-3-/-5----------3-/-5----------3-/-5----------3-/-5------
-3-/-5----------3-/-5----------3-/-5----------3-/-5------
-1-/-3----------1-/-3----------1-/-3----------1-/-3------

You've been filling me all full of lies
[D]    [E]           [D]    [E]           [D]    [E] [D] [E]                                                                                  
---------------------------------------------------------
---------------------------------------------------------
-7-/-9----------7-/-9----------7-/-9----------7-/-9------
-7-/-9----------7-/-9----------7-/-9----------7-/-9------
-5-/-7----------5-/-7----------5-/-7----------5-/-7------
---------------------------------------------------------

Sorrow will not change your shameful deed
[F]    [G]           [F]    [G]           [F]    [G] [F] [G]                                                                                  
---------------------------------------------------------
---------------------------------------------------------
---------------------------------------------------------
-3-/-5----------3-/-5----------3-/-5----------3-/-5------
-3-/-5----------3-/-5----------3-/-5----------3-/-5------
-1-/-3----------1-/-3----------1-/-3----------1-/-3------

You will bear someone else's bitter seed
CHOURSE
[G]   [G]   [F]   [F]   [G#]   [G#]   [A#]   [A#]   [F]    [G]       [F] [G]                                                                                  
--------------------------------------------------
--------------------------------------------------
--------------------------------------------------
-5--5--3--3--6--6--8--8--3-/-5----------3-/-5-----
-5--5--3--3--6--6--8--8--3-/-5----------3-/-5-----
-3--3--1--1--4--4--6--6--1-/-3----------1-/-3-----

Evil Woman don't ya play your games with me
[G]   [G]   [F]   [F]   [G#]   [G#]   [A#]   [A#]   [F]    [G]       [F] [G]                                                                                  
--------------------------------------------------
--------------------------------------------------
--------------------------------------------------
-5--5--3--3--6--6--8--8--3-/-5----------3-/-5-----
-5--5--3--3--6--6--8--8--3-/-5----------3-/-5-----
-3--3--1--1--4--4--6--6--1-/-3----------1-/-3-----

Evil Woman don't ya play your games with me
[F]    [G]           [F]    [G]           [F]    [G] [F] [G]                                                                                  
---------------------------------------------------------
---------------------------------------------------------
---------------------------------------------------------
-3-/-5----------3-/-5----------3-/-5----------3-/-5------
-3-/-5----------3-/-5----------3-/-5----------3-/-5------
-1-/-3----------1-/-3----------1-/-3----------1-/-3------

Now I know just what you're looking for
[F]    [G]           [F]    [G]           [F]    [G] [F] [G]                                                                                 
---------------------------------------------------------
---------------------------------------------------------
---------------------------------------------------------
-3-/-5----------3-/-5----------3-/-5----------3-/-5------
-3-/-5----------3-/-5----------3-/-5----------3-/-5------
-1-/-3----------1-/-3----------1-/-3----------1-/-3------

You want me to claim this child you bore
[D]    [E]           [D]    [E]           [D]    [E]                                                                                  
----------------------------------------------------------------------
----------------------------------------------------------------------
-7-/-9----------7-/-9----------7-/-9----------7/9-9-9--9--7--7-7\(3)--
-7-/-9----------7-/-9----------7-/-9----------7/9-9-9--9--7--7-7\(3)--
-5-/-7----------5-/-7----------5-/-7----------5/7-7-7--7--5--5-5\(1)--
----------------------------------------------------------------------

[F]    [G]           [F]    [G]           [F]    [G] [F] [G]                                                                                 
---------------------------------------------------------
---------------------------------------------------------
---------------------------------------------------------
-3-/-5----------3-/-5----------3-/-5----------3-/-5------
-3-/-5----------3-/-5----------3-/-5----------3-/-5------
-1-/-3----------1-/-3----------1-/-3----------1-/-3------

And you know the way it's got to be
CHOURSE
[G]   [G]   [F]   [F]   [G#]   [G#]   [A#]   [A#]   [F]    [G]       [F] [G]                                                                                 
--------------------------------------------------
--------------------------------------------------
--------------------------------------------------
-5--5--3--3--6--6--8--8--3-/-5----------3-/-5-----
-5--5--3--3--6--6--8--8--3-/-5----------3-/-5-----
-3--3--1--1--4--4--6--6--1-/-3----------1-/-3-----

Evil Woman don't ya play your games with me
[G]   [G]   [F]   [F]   [G#]   [G#]   [A#]   [A#]   [F]    [G]   [F]  [F]  [F] [F] [F] [F] [F] [F] [F] [F] [F] [F] [F] [F] [F] [F] [F] [F] [F] [F] [F] [F] [F]                                                                                 
-------------------------------------------------------------------------------
-------------------------------------------------------------------------------
-------------------------------------------------------------------------------
-5--5--3--3--6--6--8--8--3-/-5-------------------------------------------------
-5--5--3--3--6--6--8--8--3-/-5--3-3-3-3-3-3-3-3-3-3-3-3-3-3-3-3-3-3-3-3-3-3-3--
-3--3--1--1--4--4--6--6--1-/-3--1-1-1-1-1-1-1-1-1-1-1-1-1-1-1-1-1-1-1-1-1-1-1--

Evil Woman don't ya play your games with
LEAD
---------------------------------------------------------
----------3----------5-----------------------------------
-(3)---5--3--5-5^(7)-5--3--5p3---------------------------
-(3)---5----------------------5~~\(2)--------------------
---------------------------------------------------------
---------------------------------------------------------

(Guitar 1)
[F]    [G]           [F]    [G]           [F]    [G] [F] [F] [G]                                                                                 
---------------------------------------------------------
---------------------------------------------------------
---------------------------------------------------------
-3-/-5----------3-/-5----------3-/-5---------3-3-/-5-----
-3-/-5----------3-/-5----------3-/-5---------3-3-/-5-----
-1-/-3----------1-/-3----------1-/-3---------1-1-/-3-----

(Guitar 2)
---------------------------------------------------------
----------3----------5-----------------------------------
-(3)---5--3--5-5^(7)-5--3--5p3---------------------------
-(3)---5----------------------5~~\(2)--------------------
---------------------------------------------------------
---------------------------------------------------------

(Guitar 1)
[F]    [G]           [F]    [G]           [F]    [G] [F] [F] [G]                                                                                 
---------------------------------------------------------
---------------------------------------------------------
---------------------------------------------------------
-3-/-5----------3-/-5----------3-/-5---------3-3-/-5-----
-3-/-5----------3-/-5----------3-/-5---------3-3-/-5-----
-1-/-3----------1-/-3----------1-/-3---------1-1-/-3-----

(Guitar 2)
-------------------------12--------15^(17~~)-------12---------------12-12------------
--17~~--15p12----------12--15p12-12---------15^(17)--15p12-------12-12-12-15p12------
-------------14-14^(16)-----------------------------------14^(16)--------------14-12~
-------------------------------------------------------------------------------------
-------------------------------------------------------------------------------------
-------------------------------------------------------------------------------------

(Guitar 1)
[D]    [E]           [D]    [E]           [D]    [E] [D] [E]                                                                                 
----------------------------------------------------------
----------------------------------------------------------
-7-/-9----------7-/-9----------7-/-9----------7-/-9-------
-7-/-9----------7-/-9----------7-/-9----------7-/-9-------
-5-/-7----------5-/-7----------5-/-7----------5-/-7-------
----------------------------------------------------------

(Guitar 2)
----------12-15-15p12--------------------------12---------------------------------
--------12-----------15-15p12----------------12--15p12-------------------------12-
-14^(16)---------------------14-14p12-14^(16)---------14-12~------------14^(16)---
------------------------------------------------------------14p12--12h14----------
-----------------------------------------------------------------12---------------
----------------------------------------------------------------------------------

(Guitar 1)
-12---------12--------12----------------------12--------------------------
----------12------------17~-15p12---------------15p12-------15p12---------
---14^(16)----14^(16)------------14p12-14^(16)-------14-12~------14-12~~--
--------------------------------------------------------------------------
--------------------------------------------------------------------------
--------------------------------------------------------------------------

(Guitar 1)
[D]    [E]           [D]    [E]           [D]    [E] [D] [E]                                                                                 
----------------------------------------------------------
----------------------------------------------------------
-7-/-9----------7-/-9----------7-/-9----------7-/-9-------
-7-/-9----------7-/-9----------7-/-9----------7-/-9-------
-5-/-7----------5-/-7----------5-/-7----------5-/-7-------
----------------------------------------------------------

(Guitar 2)
CHOURSE
[G]   [G]   [F]   [F]   [G#]   [G#]   [A#]   [A#]   [F]    [G]       [F] [G]                                                                                 
--------------------------------------------------
--------------------------------------------------
--------------------------------------------------
-5--5--3--3--6--6--8--8--3-/-5----------3-/-5-----
-5--5--3--3--6--6--8--8--3-/-5----------3-/-5-----
-3--3--1--1--4--4--6--6--1-/-3----------1-/-3-----

Evil Woman don't ya play your games with me
[G]   [G]   [F]   [F]   [G#]   [G#]   [A#]   [A#]   [F]    [G]       [F] [G]                                                                                 
--------------------------------------------------
--------------------------------------------------
--------------------------------------------------
-5--5--3--3--6--6--8--8--3-/-5----------3-/-5-----
-5--5--3--3--6--6--8--8--3-/-5----------3-/-5-----
-3--3--1--1--4--4--6--6--1-/-3----------1-/-3-----

Evil Woman don't ya play your games with me
[F]    [G]           [F]    [G]           [F]    [G] [F] [G]                                                                                 
---------------------------------------------------------
---------------------------------------------------------
---------------------------------------------------------
-3-/-5----------3-/-5----------3-/-5----------3-/-5------
-3-/-5----------3-/-5----------3-/-5----------3-/-5------
-1-/-3----------1-/-3----------1-/-3----------1-/-3------

Wickedness lies in your moistened lips
[F]    [G]           [F]    [G]           [F]    [G] [F] [G]                                                                                 
---------------------------------------------------------
---------------------------------------------------------
---------------------------------------------------------
-3-/-5----------3-/-5----------3-/-5----------3-/-5------
-3-/-5----------3-/-5----------3-/-5----------3-/-5------
-1-/-3----------1-/-3----------1-/-3----------1-/-3------

Your body moves just like the crack of a whip
[D]    [E]           [D]    [E]           [D]    [E]                                                                                  
----------------------------------------------------------------------
----------------------------------------------------------------------
-7-/-9----------7-/-9----------7-/-9----------7/9-9-9--9--7--7-7\(3)--
-7-/-9----------7-/-9----------7-/-9----------7/9-9-9--9--7--7-7\(3)--
-5-/-7----------5-/-7----------5-/-7----------5/7-7-7--7--5--5-5\(1)--
----------------------------------------------------------------------

Black cat sleeps on top of your stained bed
[F]    [G]           [F]    [G]           [F]    [G] [F] [G]                                                                                 
---------------------------------------------------------
---------------------------------------------------------
---------------------------------------------------------
-3-/-5----------3-/-5----------3-/-5----------3-/-5------
-3-/-5----------3-/-5----------3-/-5----------3-/-5------
-1-/-3----------1-/-3----------1-/-3----------1-/-3------

Your true wish that you could see me dead
CHOURSE
[G]   [G]   [F]   [F]   [G#]   [G#]   [A#]   [A#]   [F]    [G]       [F] [G]                                                                                 
--------------------------------------------------
--------------------------------------------------
--------------------------------------------------
-5--5--3--3--6--6--8--8--3-/-5----------3-/-5-----
-5--5--3--3--6--6--8--8--3-/-5----------3-/-5-----
-3--3--1--1--4--4--6--6--1-/-3----------1-/-3-----

Evil Woman don't ya play your game with me
[G]   [G]   [F]   [F]   [G#]   [G#]   [A#]   [A#]   [F]    [G]       [F] [G]                                                                                 
--------------------------------------------------
--------------------------------------------------
--------------------------------------------------
-5--5--3--3--6--6--8--8--3-/-5----------3-/-5-----
-5--5--3--3--6--6--8--8--3-/-5----------3-/-5-----
-3--3--1--1--4--4--6--6--1-/-3----------1-/-3-----

Evil Woman don't ya play your game with me
[G]   [G]   [F]   [F]   [G#]   [G#]   [A#]   [A#]   [F]    [G]       [F] [G]                                                                                 
--------------------------------------------------
--------------------------------------------------
--------------------------------------------------
-5--5--3--3--6--6--8--8--3-/-5----------3-/-5-----
-5--5--3--3--6--6--8--8--3-/-5----------3-/-5-----
-3--3--1--1--4--4--6--6--1-/-3----------1-/-3-----

Evil Woman don't ya play your game with me
[G]   [G]   [F]   [F]   [G#]   [G#]   [A#]   [A#]   [F]    [G]       [F] [G]                                                                                 
--------------------------------------------------
--------------------------------------------------
--------------------------------------------------
-5--5--3--3--6--6--8--8--3-/-5----------3-/-5-----
-5--5--3--3--6--6--8--8--3-/-5----------3-/-5-----
-3--3--1--1--4--4--6--6--1-/-3----------1-/-3-----

Evil Woman don't ya play your games with me
[G]   [G]   [F]   [F]   [G#]   [G#]   [A#]   [A#]   [F]    [G]       [F] [G]                                                                                 
--------------------------------------------------
--------------------------------------------------
--------------------------------------------------
-5--5--3--3--6--6--8--8--3-/-5----------3-/-5-----
-5--5--3--3--6--6--8--8--3-/-5----------3-/-5-----
-3--3--1--1--4--4--6--6--1-/-3----------1-/-3-----

Evil Woman don't ya play your games with me

Important: The song above is NOT stored on the Chordie server. The original song is hosted at www.xguitar.com. Chordie works as a search engine and provides on-the-fly formatting. Chordie does not index songs against artists'/composers' will. To remove this song please click here.

Text color:
Chord color:
Chord grids: 
Font size:    
Page size: 

A# D E F G G#
variations - click chord images

Login - add to songbook

Transpose chords

Tuning

Rating click stars to rate

Layout
Accuracy

SHARE PAGE  




You need to log in to post comments