Guitar Tabs, Chords and Lyrics


The Shining    Black Sabbath



|-----------1--------------0-2-----------------1----------------0-------
|---------1-------3------3-----3-------------1-------3--------0---0-----
|-------2-------0------2---------2---------2-------0--------5-------5---
|-0h2-3-------2-----0----------------0h2-3-------2--------7-----------7-
|------------------------------------------------------0----------------
|-----------------------------------------------------------------------

1st time:             2nd time:
|-------------------||-8-----7-----5--||-----------------------
|-8-----7-----5-----||----------------||-----------------------
|---5-----5-----5---||---5-----5------||-----------------------
|-----7-----7-------||-----7-----7----||-----------------------
|-------------------||----------------||-----------------------
|-------------------||----------------||-----------------------
|-------0-----0--------0-------0---------7-----7----/-9--9--9------
|-----8---8-----8----7---7---7---7-----8---8-----8--/10-10-10------
|---7-------7-----/8-------8---------7-------7------/-9--9--9------
|-0--------------------------------0-------------------------------
|------------------------------------------------------------------
|------------------------------------------------------------------
|-----------------------------------------------------------------
|-----------------------------------------------------------------
|--7---9--10--/9--7--5--7----5--5--7---9--10--/9--7--5--7--5--5---
|--7---9--10--/7--5--3--5----5--5--7---9--10--/7--5--3--5--5--5---
|--5---7--8------------------3--3--5---7--8----------------3--3---
|-----------------------------------------------------------------
|----------------------------------------------------------
|----------------------------------------------------------
|--5--7--5h7p5-4-----------------2-p0----------------------
|----------------5----0--2--3---------2--------------------
|----------------------------------------3--2--------------
|----------------------------------------------------------

___________________________________________________
P.M.
|---------0----------------0----------------0-----------------------
|-------0---0-8----------3-----3----------1-----1-------------------
|-----5---------5--4---4-----4---4--2---2---------2-----------------
|---7----------------5----------------3-------3------2--------------
|-0------------------------------------------------------3---2---0--
|-------------------------------------------------------------------
|----------------------------------------------------------
|----------------------------------------------------------
|-----------------------------------------------7--9\------
|----2--1~~-------5-4--5--4h5p4-------2--1~~----5--7\------
|-0-------------0---------------5--0-----------------------


Important: The song above is NOT stored on the Chordie server. The original song is hosted at www.xguitar.com. Chordie works as a search engine and provides on-the-fly formatting. Chordie does not index songs against artists'/composers' will. To remove this song please click here.

This song is displayed as text-only. Transposing and tuning is only available for chordpro-songs.

Login - add to songbook

Rating click stars to rate

Layout
Accuracy

SHARE PAGE  




You need to log in to post comments