Guitar Tabs, Chords and Lyrics


The Illusion of Power    Black Sabbath



Artist:   Black Sabbath                 \,,/.  //*_*\\  .\,,/
Song:     The Illusion Of Power
Album:    Forbidden
Tabed by: Necromansy (Lucas Czepiel)

Key:
. - palm muted
* - artificial harmonic
/ - slide up
\ - slide down
p - pull off
h - hammer on
~ - vibrato

Intro:
(placid part)
gtr.1
Eb||------------------------------||
Bb||------------------------------||
Gb||------8-----8-10--10-8------8-|| 2x
Db||--10-----10--------------10---||
Ab||------------------------------||
Eb||------------------------------||

gtr.1
Eb||------------------------------||
Bb||------------------------------||
Gb||------8-----8-10--10-8------8-|| 7x
Db||--10-----10--------------10---||
Ab||------------------------------||
Eb||------------------------------||

gtr.2
(hard entry)
Eb||------------------------------------||
Bb||------------------------------------||
Gb||------------------------------------||
Db||--7------------------2-5-8-7-2-2-2--|| 3x
Ab||--7------------------2-5-8-7-2-2-2--||
Eb||--5------------------0-3-6-5-0-0-0--||

gtr.1 & 2
Eb||---------------------------------------||
Bb||---------------------------------------||
Gb||---------------------------------------||
Db||------7---6^---------------------------|| 4x
Ab||--7------------6---9---12^---12~---8---||
Eb||---------------------------------------||
                                                   first  second
gtr.1 & 2                                           time   time
Eb||----------------------------------------------||-----||----||
Bb||----------------------------------------------||-----||----||
Gb||----------------------------------------------||-----||----||
Db||--7-------------------------------------------||-----||----||
Ab||--x--8--7-4--7~--8~///---8-8-8-8-7--6-6-6-6-5-||-----||-5--||
Eb||--5----------------------6-6-6-6-5--4-4-4-4-3-||-0-3-||-3--||

gtr.1 & 2
Eb||---------------------------------------||
Bb||---------------------------------------||
Gb||---------------------------------------||
Db||------7---6^---------------------------|| 4x
Ab||--7------------6---9---12^---12~---8---||
Eb||---------------------------------------||

                                                            last
gtr.1 & 2                                          3 time   time
Eb||----------------------------------------------||-----||------||
Bb||----------------------------------------------||-----||------||
Gb||----------------------------------------------||-----||------||
Db||--7-------------------------------------------||-----||------||
Ab||--x--8--7-4--7~--8~///---8-8-8-8-7--6-6-6-6-5-||-----||-///--||
Eb||--5----------------------6-6-6-6-5--4-4-4-4-3-||-0-3-||-///--||


gtr.1 & 2
Eb||---------------------------||
Bb||---------------------------||
Gb||---------------------------||
Db||---------------------------|| 8x
Ab||--3-3-3-3--3~-4~-----------||
Eb||--1-1-1-1---------1-3~-4~--||

                                                            last
gtr.1 & 2                                          3 time   time
Eb||----------------------------------------------||-----||------||
Bb||----------------------------------------------||-----||------||
Gb||----------------------------------------------||-----||------||
Db||--7-------------------------------------------||-----||------||
Ab||--x--8--7-4--7~--8~///---8-8-8-8-7--6-6-6-6-5-||-----||-8----||
Eb||--5----------------------6-6-6-6-5--4-4-4-4-3-||-0-3-||-6----||

gtr.1
(placid part)
Eb||------------------------------||
Bb||------------------------------||
Gb||------8-----8-10--10-8------8-|| 22x
Db||--10-----10--------------10---||
Ab||------------------------------||
Eb||------------------------------||

gtr.2
(hard part)
Eb||------------------------------------||
Bb||------------------------------------||
Gb||------------------------------------||
Db||--7------------------2-5-8-7-2-2-2--|| 6x
Ab||--7------------------2-5-8-7-2-2-2--||
Eb||--5------------------0-3-6-5-0-0-0--||

That's it. It's a very simple song.
Maybe I wrong witch some moment, but I think it's ok.


Important: The song above is NOT stored on the Chordie server. The original song is hosted at www.xguitar.com. Chordie works as a search engine and provides on-the-fly formatting. Chordie does not index songs against artists'/composers' will. To remove this song please click here.

This song is displayed as text-only. Transposing and tuning is only available for chordpro-songs.

Login - add to songbook

Rating click stars to rate

Layout
Accuracy

SHARE PAGE  




You need to log in to post comments