Guitar Tabs, Chords and Lyrics


Black Sabbath    Black Sabbath











Started:
Finished: 4:58 AM 5/21/98

Black Sabbath - Live Intro to "Black Sabbath"

From Black Sabbath's "Live Evil" Album 1984
---------0----0------0---0---0---0---0---0---0---0---0---0---0---0---0-
-------0----0------0---0---0---0---0---0---0---0---0---0---0---0---0---
-----5-----5-----5---5---5---5---5---5---5---5---5---5---5---5---5-----
---7-----7-------------------------------------------------------------
-0-----0---------------------------------------------------------------
-----------------------------------------------------------------------
-----0---0---0---0---0--------0------0---
---0---0---0---0---0--------0---0--0-----
-5---5---5---5---5---------5------5------
-------------------------7---------------
(0)--------------------0-----------------
-----------------------------------------

---------5------------3-----------1---------0--------------------------
-----------6------------4-----------2---------1------------------------
------7------7-----5------5-----3---------2---------7---5---3----2-----
----7------------5------------3---------2---------7---5---3----2-------
--5------------3------------1---------0---------5---3---1----0---------
-----------------------------------------------------------------------

-----------------------
-----------------------
-----7---5---3---2-7---
---7---5---3---2---7---
-5---3---1---0-----5---
-----------------------

---------0----0------0---0---0---0---0---0---0---0---0---0---0---0---0-
-------0----0------0---0---0---0---0---0---0---0---0---0---0---0---0---
-----5-----5-----5---5---5---5---5---5---5---5---5---5---5---5---5-----
---7-----7-------------------------------------------------------------
-0-----0---------------------------------------------------------------
-----------------------------------------------------------------------

------0---0----0---0---0---------0------0-
----0---0----0---0---0---------0---0--0---
--5---5----5---5---5---------5------5-----
-----0---0---0---0---------7--------------
------------------------0-----------------
------------------------------------------

---------5------------3-----------1---------0--------------------------
-----------6------------4-----------2---------1------------------------
------7------7-----5------5-----3---------2---------7---5---3----2-----
----7------------5------------3---------2---------7---5---3----2-------
--5------------3------------1---------0---------5---3---1----0---------
-----------------------------------------------------------------------

-----------------------
-----------------------
-----7---5---3---2-7---
---7---5---3---2---7---
-5---3---1---0-----5---


Important: The song above is NOT stored on the Chordie server. The original song is hosted at www.xguitar.com. Chordie works as a search engine and provides on-the-fly formatting. Chordie does not index songs against artists'/composers' will. To remove this song please click here.

This song is displayed as text-only. Transposing and tuning is only available for chordpro-songs.

Login - add to songbook

Rating click stars to rate

Layout
Accuracy

SHARE PAGE  




You need to log in to post comments