Guitar Tabs, Chords and Lyrics


Paranoid   Black Sabbath



[#]#                     From The Headless Cross Tab Page                     [#]#
Start Date: 07:25 9/10/01
Finished: 14:43 9/10/01
UPDATED -
Black Sabbath - Paranoid/Heaven and Hell (Finished)
From Black Sabbath's "Live Evil" - 1982
Tuning Info: Tune to Ed, Allegro, 160 beats/min., 4/4 count
Lyrics written here may not align with the tab due to space
constraints.
(f)
--------------------------------------------------------------------------------------
--------------------------------------------------------------------------------------
--------------------------------------------------------------------------------------
-------------------------------12h14------12---------------------------12h14-----12---
--------12h14-12h14-12h14-12h14-----12h114--14--12h14-12h14-12h14-12h14-----12h14--14-
-1s/12--12----12----12--------------------------12----12----12------------------------
------------------------------------------------------------------------------
------------------------------------------------------------------------------
------------------------------------------------------------------------------
------------------------12h14-----12----------------------------12h14-----12--
-12h14-12h14-12h14-12h14-----12h14--14---12h14-12h14-12h14-12h14-----12h14--14
-12----12----12--------------------------12----12----12-----------------------

  [E]   [E]   [E]   [E]   [E]   [E]   [E]   [E]   [E]   [E]   [E]   [E] [E] [E] [E] [E] [D] [D] [D] [D] [D] [D] [D] [D] [D]                                                                                             
-----------------------------------------------------------------------------
-----------------------------------------------------------------------------
-----------------------------------------------------------------------------
-----------------------------------------------------------------------------
-14-14-14-14-14-14-14-14-14-14-14-14-14--14-14-14-12-12-12-12-12-12-12-12-12-
-12-12-12-12-12-12-12-12-12-12-12-12-12--12-12-12-10-10-10-10-10-10-10-10-10-

Fin - ished with my wo - man 'cause she couldn't help me
[G]    [D]    [E]     [Gsus2]                                                                                                   
-------------------
--------------12---
--------------12---
-12-----------12---
-10--12--14--------
-----10--12--------

with my mind
  [E]   [E]   [E]   [E]   [E]   [E]   [E]   [E]   [E]   [E]   [E]   [E] [E] [E] [E] [E] [D] [D] [D] [D] [D] [D] [D] [D] [D]                                                                                             
-----------------------------------------------------------------------------
-----------------------------------------------------------------------------
-----------------------------------------------------------------------------
-----------------------------------------------------------------------------
-14-14-14-14-14-14-14-14-14-14-14-14-14--14-14-14-12-12-12-12-12-12-12-12-12-
-12-12-12-12-12-12-12-12-12-12-12-12-12--12-12-12-10-10-10-10-10-10-10-10-10-

People think I'm in - sane be - cause I am frowning
[G]    [D]     [E]                                                                                               
--------------
--------------
--------------
-12-----------
-10--12--14---
-----10--12---

all the time
  [E]  [E]    [C]     [D]   [E]   [E]   [E]   [E]   [E]   [E]   [E]  [E] [E] [E] [E] [E] [E] [E] [E] [E]                                                                                             
-------------------------------------------------------------------
-------------------------------------------------------------------
-------------------------------------------------------------------
-------------------------------------------------------------------
-14-14--10--12--14-14-14-14-14-14-14-14--14-14-14-14-14-14-14-14---
-12-12---8--10--12-12-12-12-12-12-12-12--12-12-12-12-12-12-12-12---

Yeahhh! Yeah
  [E]  [E]    [C]     [D]   [E]   [E]   [E]   [E]   [E]   [E]   [E]  [E] [E] [E] [E] [E] [E] [E] [E] [E]                                                                                             
-------------------------------------------------------------------
-------------------------------------------------------------------
-------------------------------------------------------------------
-------------------------------------------------------------------
-14-14--10--12--14-14-14-14-14-14-14-14--14-14-14-14-14-14-14-14---
-12-12---8--10--12-12-12-12-12-12-12-12--12-12-12-12-12-12-12-12---

  [E]   [E]   [E]   [E]   [E]   [E]   [E]   [E]   [E]   [E]   [E]   [E] [E] [E] [E] [E] [D] [D] [D] [D] [D] [D] [D] [D] [D]                                                                                             
-----------------------------------------------------------------------------
-----------------------------------------------------------------------------
-----------------------------------------------------------------------------
-----------------------------------------------------------------------------
-14-14-14-14-14-14-14-14-14-14-14-14-14--14-14-14-12-12-12-12-12-12-12-12-12-
-12-12-12-12-12-12-12-12-12-12-12-12-12--12-12-12-10-10-10-10-10-10-10-10-10-

All day long I think of things But nothing seems to
[G]    [D]   [E]      [Gsus2]                                                                                                  
-------------------
--------------12---
--------------12---
-12-----------12---
-10--12--14--------
-----10--12--------

sat is fy
  [E]   [E]   [E]   [E]   [E]   [E]   [E]   [E]   [E]   [E]   [E]   [E] [E] [E] [E] [E] [D] [D] [D] [D] [D] [D] [D] [D] [D]                                                                                            
-----------------------------------------------------------------------------
-----------------------------------------------------------------------------
-----------------------------------------------------------------------------
-----------------------------------------------------------------------------
-14-14-14-14-14-14-14-14-14-14-14-14-14--14-14-14-12-12-12-12-12-12-12-12-12-
-12-12-12-12-12-12-12-12-12-12-12-12-12--12-12-12-10-10-10-10-10-10-10-10-10-

Think I'll lose my mind if I don't find something to
[G]    [D]     [E]                                                                                              
--------------
--------------
--------------
-12-----------
-10--12--14---
-----10--12---

gr at ify
BRIDGE
  [E]  [E]          [E]   [D]               [D)/E]    [D]                                                                                            
-------------------------------------------------------
-------------------------------------------------------
-------------------------------------------------------
-------------------------------------------------------
-14-14--------14-12-------------(12)/14--------12------
-12-12--------12-10-------------(10)/12--------10------

Can you help me Occupy my brain Oh yea, alright!
  [E]   [E]   [E]   [E]   [E]   [E]   [E]   [E]   [E]   [E]   [E]   [E] [E] [E] [E] [E] [D] [D] [D] [D] [D] [D] [D] [D] [D]                                                                                            
-----------------------------------------------------------------------------
-----------------------------------------------------------------------------
-----------------------------------------------------------------------------
-----------------------------------------------------------------------------
-14-14-14-14-14-14-14-14-14-14-14-14-14--14-14-14-12-12-12-12-12-12-12-12-12-
-12-12-12-12-12-12-12-12-12-12-12-12-12--12-12-12-10-10-10-10-10-10-10-10-10-

Yeah
[G]    [D]     [E]     [Gsus2]                                                                                                  
-------------------
--------------12---
--------------12---
-12-----------12---
-10--12--14--------
-----10--12--------

  [E]   [E]   [E]   [E]   [E]   [E]   [E]   [E]   [E]   [E]   [E]   [E] [E] [E] [E] [E] [D] [D] [D] [D] [D] [D] [D] [D] [D]                                                                                            
-----------------------------------------------------------------------------
-----------------------------------------------------------------------------
-----------------------------------------------------------------------------
-----------------------------------------------------------------------------
-14-14-14-14-14-14-14-14-14-14-14-14-14--14-14-14-12-12-12-12-12-12-12-12-12-
-12-12-12-12-12-12-12-12-12-12-12-12-12--12-12-12-10-10-10-10-10-10-10-10-10-

[G]    [D]     [E]    [Gsus2]                                                                                                  
-------------------
--------------12---
--------------12---
-12-----------12---
-10--12--14--------
-----10--12--------

  [E]   [E]   [E]   [E]   [E]   [E]   [E]   [E]   [E]   [E]   [E]   [E] [E] [E] [E] [E] [D] [D] [D] [D] [D] [D] [D] [D] [D]                                                                                            
-----------------------------------------------------------------------------
-----------------------------------------------------------------------------
-----------------------------------------------------------------------------
-----------------------------------------------------------------------------
-14-14-14-14-14-14-14-14-14-14-14-14-14--14-14-14-12-12-12-12-12-12-12-12-12-
-12-12-12-12-12-12-12-12-12-12-12-12-12--12-12-12-10-10-10-10-10-10-10-10-10-

I need some - one to show me the things in life that
[G]    [D]     [E]    [Gsus2]                                                                                                  
-------------------
--------------12---
--------------12---
-12-----------12---
-10--12--14--------
-----10--12--------

I can't find
  [E]   [E]   [E]   [E]   [E]   [E]   [E]   [E]   [E]   [E]   [E]   [E] [E] [E] [E] [E] [D] [D] [D] [D] [D] [D] [D] [D] [D]                                                                                            
-----------------------------------------------------------------------------
-----------------------------------------------------------------------------
-----------------------------------------------------------------------------
-----------------------------------------------------------------------------
-14-14-14-14-14-14-14-14-14-14-14-14-14--14-14-14-12-12-12-12-12-12-12-12-12-
-12-12-12-12-12-12-12-12-12-12-12-12-12--12-12-12-10-10-10-10-10-10-10-10-10-

I can't see the things that make true happiness I
   [G]    [D]     [E]                                                                                              
--------------
--------------
--------------
-12-----------
-10--12--14---
-----10--12---

must be blind!
SOLO (1:14)
(1:18)
--12----------12----------12-------------------15p12----------------12-----------------
--12----------12----------12-----------------12-----15-12h15-----------12-15p12--12----
--14^(16`14)--14^(16`14)--14^(16`14)-14^^(16)----------------14^(16)-----------14--14--
---------------------------------------------------------------------------------------
---------------------------------------------------------------------------------------
---------------------------------------------------------------------------------------

I can't see!!
(1:23)
------------------------------------------------------------
----------------------------10^(12)-8-----------8-7-7h8-----
-4----------------4-7-9--7-9---------------7-7h9-------9~~--
--7-5-7-5-----5-7--------------------9~~~~------------------
---------7-5-7----------------------------------------------
------------------------------------------------------------

(1:27)
-15p12--12-15p12--12-15p12--12-15p12--122-15p12--12-15p12--12-15h18p15--17h20p17----
------15--------15--------15--------15---------15--------15-----------17--------20--
------------------------------------------------------------------------------------
------------------------------------------------------------------------------------
------------------------------------------------------------------------------------
------------------------------------------------------------------------------------

(1:29)
-12h15p12h15p12h15p12----------------------------------
---------------------15-12-------------112-------------
--------------------------14-12-14^(16)---14-12\11-----
--------------------------------------------------14~--
-------------------------------------------------------
-------------------------------------------------------

(1:34)
--------------12-----------------------------
------------12--15-12------------------------
-12-12-14-12---------14-12-------------------
--------------------------14--7s^(9)p5-77/9--
---------------------------------------------
---------------------------------------------

[G]    [E]    [Gsus2]                                                                                                  
-------------
---------12--
---------12--
---------12--
-12--14------
-10--12------

  [E]  [E]    [C]     [D]   [E]   [E]   [E]   [E]   [E]   [E]   [E]  [E] [E] [E] [E] [E] [E] [E] [E] [E]                                                                                            
-------------------------------------------------------------------
-------------------------------------------------------------------
-------------------------------------------------------------------
-------------------------------------------------------------------
-14-14--10--12--14-14-14-14-14-14-14-14--14-14-14-14-14-14-14-14---
-12-12--8---10--12-12-12-12-12-12-12-12--12-12-12-12-12-12-12-12---

Ohh, Yeah!
[G]    [D]    [E]     [Gsus2]                                                                                                  
-------------------
--------------12---
--------------12---
-12-----------12---
-10--12--14--------
-----10--12--------

  [E]   [E]   [E]   [E]   [E]   [E]   [E]   [E]   [E]   [E]   [E]   [E] [E] [E] [E] [E] [D] [D] [D] [D] [D] [D] [D] [D] [D]                                                                                            
-----------------------------------------------------------------------------
-----------------------------------------------------------------------------
-----------------------------------------------------------------------------
-----------------------------------------------------------------------------
-14-14-14-14-14-14-14-14-14-14-14-14-14--14-14-14-12-12-12-12-12-12-12-12-12-
-12-12-12-12-12-12-12-12-12-12-12-12-12--12-12-12-10-10-10-10-10-10-10-10-10-

[G]    [D]     [E]                                                                                              
--------------
--------------
--------------
-12-----------
-10--12--14---
-----10--12---

  [E]   [E]   [E]   [E]   [E]   [E]   [E]   [E]   [E]   [E]   [E]   [E] [E] [E] [E] [E] [D] [D] [D] [D] [D] [D] [D] [D] [D]                                                                                            
-----------------------------------------------------------------------------
-----------------------------------------------------------------------------
-----------------------------------------------------------------------------
-----------------------------------------------------------------------------
-14-14-14-14-14-14-14-14-14-14-14-14-14--14-14-14-12-12-12-12-12-12-12-12-12-
-12-12-12-12-12-12-12-12-12-12-12-12-12--12-12-12-10-10-10-10-10-10-10-10-10-

Make a joke and I will sigh and you will laugh and
[G]    [D]     [E]    [Gsus2]                                                                                                  
-------------------
--------------12---
--------------12---
-12-----------12---
-10--12--14--------
-----10--12--------

I will cry
     [E]   [E]   [E]   [E]   [E]   [E]   [E]   [E]   [E]   [E]   [E]   [E] [E] [E] [E] [E] [D] [D] [D] [D] [D] [D] [D] [D] [D]                                                                                            
-----------------------------------------------------------------------------
-----------------------------------------------------------------------------
-----------------------------------------------------------------------------
-----------------------------------------------------------------------------
-14-14-14-14-14-14-14-14-14-14-14-14-14--14-14-14-12-12-12-12-12-12-12-12-12-
-12-12-12-12-12-12-12-12-12-12-12-12-12--12-12-12-10-10-10-10-10-10-10-10-10-

Happ iness I can not feel and love to me is
   [G]    [D]     [E]                                                                                              
--------------
--------------
--------------
-12-----------
-10--12--14---
-----10--12---

so un real
  [E]   [E]    [C]     [D]   [E]    [E]   [E]    [C]     [D]                                                                                              
------------------------------------
------------------------------------
------------------------------------
------------------------------------
-14-14--10--12--14---14-14--10--12--
-12-12--8---10--12---12-12--8---10--

Ohhhhh
  [E]   [E]   [E]   [E]   [E]   [E]   [E]   [E]   [E]   [E]   [E]   [E] [E] [E] [E] [E]                                                                                            
----------------------------------------------------
----------------------------------------------------
----------------------------------------------------
----------------------------------------------------
-14-14-14-14-14-14-14-14-14-14-14-14-14--14-14-14--
-12-12-12-12-12-12-12-12-12-12-12-12-12--12-12-12--

  [E]   [E]   [E]   [E]   [E]   [E]   [E]   [E]   [E]   [E]   [E]   [E] [E] [E] [E] [E] [D] [D] [D] [D] [D] [D] [D] [D] [D]                                                                                            
-----------------------------------------------------------------------------
-----------------------------------------------------------------------------
-----------------------------------------------------------------------------
-----------------------------------------------------------------------------
-14-14-14-14-14-14-14-14-14-14-14-14-14--14-14-14-12-12-12-12-12-12-12-12-12-
-12-12-12-12-12-12-12-12-12-12-12-12-12--12-12-12-10-10-10-10-10-10-10-10-10-

And so as you hear these words telling you now
[G]    [D]     [E]   [Gsus2]                                                                                                  
----------------
-------------12-
-------------12-
-12----------12-
-10--12--14-----
-----10--12-----

of my fate
  [E]   [E]   [E]   [E]   [E]   [E]   [E]   [E]   [E]   [E]   [E]   [E] [E] [E] [E] [E] [D] [D] [D] [D] [D] [D] [D] [D] [D]                                                                                            
-----------------------------------------------------------------------------
-----------------------------------------------------------------------------
-----------------------------------------------------------------------------
-----------------------------------------------------------------------------
-14-14-14-14-14-14-14-14-14-14-14-14-14--14-14-14-12-12-12-12-12-12-12-12-12-
-12-12-12-12-12-12-12-12-12-12-12-12-12--12-12-12-10-10-10-10-10-10-10-10-10-

I tell you to enjoy life I wish I could but
[G]    [D]     [E]   [Gsus2]                                                                                                  
----------------
-------------12-
-------------12-
-12----------12-
-10--12--14-----
-----10--12-----

it's too late
  [E]   [E]   [E]   [E]   [E]   [E]   [E]   [E]   [E]   [E]   [E]   [E] [E] [E] [E] [E] [D] [D] [D] [D] [D] [D] [D] [D] [D]                                                                                            
-----------------------------------------------------------------------------
-----------------------------------------------------------------------------
-----------------------------------------------------------------------------
-----------------------------------------------------------------------------
-14-14-14-14-14-14-14-14-14-14-14-14-14--14-14-14-12-12-12-12-12-12-12-12-12-
-12-12-12-12-12-12-12-12-12-12-12-12-12--12-12-12-10-10-10-10-10-10-10-10-10-

Ohhhhh, ohh
[G]    [D]     [E]   [Gsus2]                                                                                                  
----------------
-------------12-
-------------12-
-12----------12-
-10--12--14-----
-----10--12-----

  [E]   [E]   [E]   [E]   [E]   [E]   [E]   [E]   [E]   [E]   [E]   [E] [E] [E] [E] [E] [D] [D] [D] [D] [D] [D] [D] [D] [D]                                                                                            
-----------------------------------------------------------------------------
-----------------------------------------------------------------------------
-----------------------------------------------------------------------------
-----------------------------------------------------------------------------
-14-14-14-14-14-14-14-14-14-14-14-14-14--14-14-14-12-12-12-12-12-12-12-12-12-
-12-12-12-12-12-12-12-12-12-12-12-12-12--12-12-12-10-10-10-10-10-10-10-10-10-

[G]                                                                                              
----------------
----------------
----------------
-12-------------
-10-------------
-----10^(11)-0--

(Heaven and Hell, finish 2:26 Andante, 100 beats/min., 4/4count)
E5 F#5 G5\ C5 D5 D5 D5 D5 E5 F#5 G5/E5 G5\F#5 E5
------------------------------------------------------------
------------------------------------------------------------
-9----11-12\(7)--------------------9-----11-12/14--12\11-9--
-9----11-12\(7)-10---12-12--12-12--9-----11-12/14--12\11-9--
-7-----9-10-----10---12-12--12-12--7------9-10/12--10\-9-7--
-0---------------8---10-10--10-10------------------------0--

Heyyy, ohh Yeah!
E5 F#5 G5\ C5 D5 D5 D5 D5 E5 F#5 G5/E5 G5\F#5 E5
------------------------------------------------------------
------------------------------------------------------------
-9----11-12\(7)--------------------9-----11-12/14--12\11-9--
-9----11-12\(7)-10---12-12--12-12--9-----11-12/14--12\11-9--
-7-----9-10-----10---12-12--12-12--7------9-10/12--10\-9-7--
-0---------------8---10-10--10-10------------------------0--

[E5]    [F#5]     [G5]             [D5]              [E5]                                                                                            
---------------------------------------------------------------------
---------------------------------------------------------------------
-----11--------------------------------------------------------------
-9---11---5-----------7-------------------------9----12-12\7--9-9\5--
-7----9---3-----------5-------------------------7----12-12\7--9-9\5--
-0----------------------------------------------0--------------------

Ahhhhhh Alright! Thank you!
OUTRO SOLO
-------------------------12-15p12h15p12hh15p12-12~--12-15p12-----12-----12-15p12-----12-
-15p12---15p12---15p12-15-----------------------------------15p12--15p12--------15p12---
----------------------------------------------------------------------------------------
----------------------------------------------------------------------------------------
----------------------------------------------------------------------------------------
----------------------------------------------------------------------------------------

Thank you! Thank you all! God bless you all!
(3:11)
-15p12-15p12-------------------------------------------------------------------------
------------15p12-15p12--------------------------------------------------------------
-----------------------14p12-14p12---------------------------------------------------
----------------------------------14p12--14p12---------------------------------------
----------------------------------------------14p12-14p12\12p10-12p10----------------
----------------------------------------------------------------------10/12^(14s`12)-

Good Luck!
E E E (3:19)
-----------------------------------------
-----------------------------------------
-----------------------------------------
---------9--------------9--------9\(5)---
---------7--------------7--------7\(3)---
-12\\\\7p0--------------0--------0-------


Important: The song above is NOT stored on the Chordie server. The original song is hosted at www.xguitar.com. Chordie works as a search engine and provides on-the-fly formatting. Chordie does not index songs against artists'/composers' will. To remove this song please click here.

Text color:
Chord color:
Chord grids: 
Font size:    
Page size: 

C D D5 E E5 F#5 G G5 Gsus2
variations - click chord images

Login - add to songbook

Transpose chords

Tuning

Rating click stars to rate

Layout
Accuracy

SHARE PAGE  




You need to log in to post comments