Guitar Tabs, Chords and Lyrics


Embryo    Black Sabbath



From Black Sabbath's "Master of Reality" Album - July 1976

Tuning Note: Tune to C#. Allegro, 132 beats/min., 4/4 count

Note:  Lyrics written here may not align with the tab due to space
       constraints.

Special Note:  I don't normally transcribe the chords so close together, 
               but the style of the song and the space constraint
               dictated it for "Children of the Grave".  Many thanks again
               to David Owen, of the UK!  iommifan@hotmail.com

Embryo

-0-0-0-0-0-0-0-0-0-0----0-0-0-0-0-0-0-0--0---0-0-0-0-0-0-0-0-0-----
-------------------------------------------------------------------
-------------------------------------------------------------------
-2-4-5-4-2-4-5-4-2-2p0--5-7-9-7-5-7-4-2--2p0-2-4-5-4-2-4-5-2-2p0---
-------------------------------------------------------------------
-------------------------------------------------------------------

--0--0-0--0-0-0-0-0-0-0----0-0-0-0-0-0-00-0-0-0------
-----------------------------------------------------
-----------------------------------------------------
-14-12-9-12-7-9-5-4-2-2p0--2-4-5-4-2-4-55-4-2-2p0----
-----------------------------------------------------
-----------------------------------------------------

-3-2-0-0-0-0-0-0-0-0----7-5-3-0-0-0-0-0------0-------
-----------------------------------------------------
-----------------------------------------------------
-0-0-0-2-2-4-5-4-2-2p0--5-4-2-0-2-4-5-4hh5p4-2-------
-----------------------------------------------------
-----------------------------------------------------


Important: The song above is NOT stored on the Chordie server. The original song is hosted at www.xguitar.com. Chordie works as a search engine and provides on-the-fly formatting. Chordie does not index songs against artists'/composers' will. To remove this song please click here.

This song is displayed as text-only. Transposing and tuning is only available for chordpro-songs.

Login - add to songbook

Rating click stars to rate

Layout
Accuracy

SHARE PAGE  




You need to log in to post comments