Guitar Tabs, Chords and Lyrics


Break Out    Black Sabbath










Started:
Finished: 18:38 10/4/98
Updated:  04:49 8/25/01

Black Sabbath - Breakout/Swinging the Chain

From Black Sabbath's "Never Say Die" Album  October, 1978

Tuning Info: Standard (E) Tuning, 440Hz, Andante, 104 beats/min

NOTE:  Lyrics may not match written music or may be incorrect.

"Breakout"

--------------------------------------------
--------------------------------------------
--------------------------------------------
------2-------------------2-----------------
-2h4h5---------------2h4h5------------------

--------------------------------------------
--------------------------------------------
--------------------------------------------
------2-------------------2-----------------
-2h4h5---------------2h4h5------------------

--------------------------------------------
--------------------------------------------
--------------------------------------------
------2-------------------2-----------------
-2h4h5---------------2h4h5------------------

--------------------------------------------
--------------------------------------------
--------------------------------------------
------2-------------------2-----------------
-2h4h5---------------2h4h5------------------

-------------------------------------------------------------------
-------------------------------------------------------------------
-------------------------------------------------------------------
------2----------5-4p0--5/7-5p0-2-----22---------5-4p0--5/7-5p0-2--
-2h4h5-----2h4h5-----------------2h4h5------2h4h5------------------
--------0--------------------------------0-------------------------

-------------------------------------------------------------------
-------------------------------------------------------------------
-------------------------------------------------------------------
------2----------5-4p0--5/7-5p0-2-----22---------5-4p0--5/7-5p0-2--
-2h4h5-----2h4h5-----------------2h4h5------2h4h5------------------
--------0--------------------------------0-------------------------

-------------------------------------------
-------------------------------------------
-------------------------------------------
------2-------------------2----------------
-2h4h5---------------2h4h5-----------------

-------------------------------------------
-------------------------------------------
-------------------------------------------
------2-------------------2----------------
-2h4h5---------------2h3h5-----------------

-----------------------------------------------
-----------------------------------------------
-----------------------------------------------
------2-------------------2--------------------
-2h3h5---------------2h4h5---------------------


Important: The song above is NOT stored on the Chordie server. The original song is hosted at www.xguitar.com. Chordie works as a search engine and provides on-the-fly formatting. Chordie does not index songs against artists'/composers' will. To remove this song please click here.

This song is displayed as text-only. Transposing and tuning is only available for chordpro-songs.

Login - add to songbook

Rating click stars to rate

Layout
Accuracy

SHARE PAGE  




You need to log in to post comments