Guitar Tabs, Chords and Lyrics


Hard Road   Black Sabbath



[#]#                     From The Headless Cross Tab Page                     [#]#
Started:
Finished: 10:26 AM 12/20/98
Black Sabbath - A Hard Road
From Black Sabbath's "Never Say Die" Album October, 1978
Tuning Info: Standard (E) Tuning, 440Hz, Moderate, 120 beats/min.
NOTE: Lyrics may not match written music or may be incorrect.
All guitar parts may not align due to space constraints.
INTRO
------------------------------------------------------------
------------------------------------------------------------
------------------------------------------------------------
------------------------------------------------------------
-2--2-2--2-2--2-2--2-2--2-2--2-2--2-2--22-2--2-2------------
------------------------------------------------------------

(Guitar 1) (Bass comes in)
-----------------------------------------------------------------
-----2-4p2---2-4~-4-4p2---4~(/7)--2-4p2----2-4~-4-4p2---4~(/7)---
-----2-4p2-4-2-4~-4-4p2-4-4~(/7)--2-4p2--4-2-4~-4-4p2-4-4~(/7)---
-----------4------------4----------------4------------4----------
-2-2----------------------------2-----------------------------2--
-----------------------------------------------------------------

(Guitar 1)
-----------------------------------------------------------------
-----2-4p2---2-4~-4-4p2---4~(/7)--2-4p2----2-4~-4-4p2---4~(/7)---
-----2-4p2-4-2-4~-4-4p2-4-4~(/7)--2-4p2--4-2-4~-4-4p2-4-4~(/7)---
-----------4------------4----------------4------------4----------
---2----------------------------2--------------------------------
-----------------------------------------------------------------

(Guitar 1)
-----------------------------------------------------------------
-----2-4p2---2-4~-4-4p2---4~(/7)--2-4p2----2-4~-4-4p2---4~(/7)---
-----2-4p2-4-2-4~-4-4p2-4-4~(/7)--2-4p2--4-2-4~-4-4p2-4-4~(/7)---
-----------4------------4----------------4------------4----------
---2----------------------------2-----------------------------2--
-----------------------------------------------------------------

(Guitar 1)
Old men crying, young men dying, world still turns as Father Time
-----------------------------------------------------------------
-----2-4p2---2-4~-4-4p2---4~(/7)--2-4p2----2-4~-4-4p2---4~(/7)---
-----2-4p2-4-2-4~-4-4p2-4-4~(/7)--2-4p2--4-2-4~-4-4p2-4-4~(/7)---
-----------4------------4----------------4------------4----------
-2-2----------------------------2-----------------------------2--
-----------------------------------------------------------------

(Guitar 1)
looks on. On and on.
-----------------------------------------------------------------
-----2-4p2---2-4~-4-4p2---4~(/7)--2-4p2----2-4~-4-4p2---4~(/7)---
-----2-4p2-4-2-4~-4-4p2-4-4~(/7)--2-4p2--4-2-4~-4-4p2-4-4~(/7)---
-----------4------------4----------------4------------4----------
---2----------------------------2-----------------------------2--
-----------------------------------------------------------------

(Guitar 1)
Children playing, dreamers praying, laughter turns to tears 'cause
-----------------------------------------------------------------
-----2-4p2---2-4~-4-4p2---4~(/7)--2-4p2----2-4~-4-4p2---4~(/7)---
-----2-4p2-4-2-4~-4-4p2-4-4~(/7)--2-4p2--4-2-4~-4-4p2-4-4~(/7)---
-----------4------------4----------------4------------4----------
---2----------------------------2-----------------------------2--
-----------------------------------------------------------------

(Guitar 1)
love has gone. Has it gone?
CHOURSE
    [B]  [B]      [B]  [B]      [B]  [B]      [B]  [B]      [A] [A] [A] [A] [A] [A] [A] [A] [E] [A]                                                                                                
------------------------------------------------------------------------------
------------------------------------------------------------------------------
-xx-8-8--xx-8-8--xx-8-8--xx-8-8--xx-6-6---xx-6-6--xx-6-6--xx-6-6--xx--7-9-----
-xx-9-9--xx-9-9--xx-9-9--xx-9-9--xx-7-7---xx-7-7--xx-7-7--xx-7-7--xx--7-7-----
-xx-9-9--xx-9-9--xx-9-9--xx-9-9--xx-7-7---xx-7-7--xx-7-7--xx-7-7--xx--5-7-----
-xx-7-7--xx-7-7--xx-7-7--xx-7-7--xx-5-5---xx-5-5--xx-5-5--xx-5-5--xx--0-5-----

(Guitar 1)
------------------------------------------------------------------------------
------------------------------------------------------------------------------
---8-8------------------------------6-6--------------------------------7-9----
---9-9------------------------------7-7--------------------------------7-7----
---9-9-(Let ring)-------------------7-7---(Let ring)-------------------5-7----
---7-7------------------------------5-5--------------------------------0-5----

(Guitar 2)
Oh it's a hard road.
    [B]  [B]      [B]  [B]      [B]  [B]      [B]  [B]      [A] [A] [A] [A] [A] [A] [A] [A] [E] [A]                                                                                               
------------------------------------------------------------------------------
------------------------------------------------------------------------------
-xx-8-8--xx-8-8--xx-8-8--xx-8-8--xx-6-6---xx-6-6--xx-6-6--xx-6-6--xx--7-9-----
-xx-9-9--xx-9-9--xx-9-9--xx-9-9--xx-7-7---xx-7-7--xx-7-7--xx-7-7--xx--7-7-----
-xx-9-9--xx-9-9--xx-9-9--xx-9-9--xx-7-7---xx-7-7--xx-7-7--xx-7-7--xx--5-7-----
-xx-7-7--xx-7-7--xx-7-7--xx-7-7--xx-5-5---xx-5-5--xx-5-5--xx-5-5--xx--0-5-----

(Guitar 1)
------------------------------------------------------------------------------
------------------------------------------------------------------------------
---8-8------------------------------6-6--------------------------------7-9----
---9-9------------------------------7-7--------------------------------7-7----
---9-9-(Let ring)-------------------7-7---(Let ring)-------------------5-7----
---7-7------------------------------5-5--------------------------------0-5----

(Guitar 2)
Oh it's a hard road.
-----------------------------------------------------------------
-----2-4p2---2-4~-4-4p2---4~(/7)--2-4p2----2-4~-4-4p2---4~(/7)---
-----2-4p2-4-2-4~-4-4p2-4-4~(/7)--2-4p2--4-2-4~-4-4p2-4-4~(/7)---
-----------4------------4----------------4------------4----------
-2-2----------------------------2-----------------------------2--
-----------------------------------------------------------------

(Guitar 1)
-----------------------------------------------------------------
-----2-4p2---2-4~-4-4p2---4~(/7)--2-4p2----2-4~-4-4p2---4~(/7)---
-----2-4p2-4-2-4~-4-4p2-4-4~(/7)--2-4p2--4-2-4~-4-4p2-4-4~(/7)---
-----------4------------4----------------4------------4----------
---2----------------------------2-----------------------------2--
-----------------------------------------------------------------

(Guitar 1)
Poets yearning, lovers learning on this path of life we pass
-----------------------------------------------------------------
-----2-4p2---2-4~-4-4p2---4~(/7)--2-4p2----2-4~-4-4p2---4~(/7)---
-----2-4p2-4-2-4~-4-4p2-4-4~(/7)--2-4p2--4-2-4~-4-4p2-4-4~(/7)---
-----------4------------4----------------4------------4----------
---2----------------------------2-----------------------------2--
-----------------------------------------------------------------

(Guitar 1)
along. Is it wrong?
-----------------------------------------------------------------
-----2-4p2---2-4~-4-4p2---4~(/7)--2-4p2----2-4~-4-4p2---4~(/7)---
-----2-4p2-4-2-4~-4-4p2-4-4~(/7)--2-4p2--4-2-4~-4-4p2-4-4~(/7)---
-----------4------------4----------------4------------4----------
---2----------------------------2-----------------------------2--
-----------------------------------------------------------------

(Guitar 1)
Widows weeping, babies sleeping life becomes the singer and the
-----------------------------------------------------------------
-----2-4p2---2-4~-4-4p2---4~(/7)--2-4p2----2-4~-4-4p2---4~(/7)---
-----2-4p2-4-2-4~-4-4p2-4-4~(/7)--2-4p2--4-2-4~-4-4p2-4-4~(/7)---
-----------4------------4----------------4------------4----------
---2----------------------------2-----------------------------2--
-----------------------------------------------------------------

(Guitar 1)
song. Sing along.
CHOURSE
    [B]  [B]      [B]  [B]      [B]  [B]      [B]  [B]      [A] [A] [A] [A] [A] [A] [A] [A] [E] [A]                                                                                               
------------------------------------------------------------------------------
------------------------------------------------------------------------------
-xx-8-8--xx-8-8--xx-8-8--xx-8-8--xx-6-6---xx-6-6--xx-6-6--xx-6-6--xx--7-9-----
-xx-9-9--xx-9-9--xx-9-9--xx-9-9--xx-7-7---xx-7-7--xx-7-7--xx-7-7--xx--7-7-----
-xx-9-9--xx-9-9--xx-9-9--xx-9-9--xx-7-7---xx-7-7--xx-7-7--xx-7-7--xx--5-7-----
-xx-7-7--xx-7-7--xx-7-7--xx-7-7--xx-5-5---xx-5-5--xx-5-5--xx-5-5--xx--0-5-----

(Guitar 1)
------------------------------------------------------------------------------
------------------------------------------------------------------------------
---8-8------------------------------6-6--------------------------------7-9----
---9-9------------------------------7-7--------------------------------7-7----
---9-9-(Let ring)-------------------7-7---(Let ring)-------------------5-7----
---7-7------------------------------5-5--------------------------------0-5----

(Guitar 2)
Oh it's a hard road.
    [B]  [B]      [B]  [B]      [B]  [B]      [B]  [B]      [A] [A] [A] [A] [A] [A] [A] [A] [E] [A]                                                                                               
------------------------------------------------------------------------------
------------------------------------------------------------------------------
-xx-8-8--xx-8-8--xx-8-8--xx-8-8--xx-6-6---xx-6-6--xx-6-6--xx-6-6--xx--7-9-----
-xx-9-9--xx-9-9--xx-9-9--xx-9-9--xx-7-7---xx-7-7--xx-7-7--xx-7-7--xx--7-7-----
-xx-9-9--xx-9-9--xx-9-9--xx-9-9--xx-7-7---xx-7-7--xx-7-7--xx-7-7--xx--5-7-----
-xx-7-7--xx-7-7--xx-7-7--xx-7-7--xx-5-5---xx-5-5--xx-5-5--xx-5-5--xx--0-5-----

(Guitar 1)
------------------------------------------------------------------------------
------------------------------------------------------------------------------
---8-8------------------------------6-6--------------------------------7-9----
---9-9------------------------------7-7--------------------------------7-7----
---9-9-(Let ring)-------------------7-7---(Let ring)-------------------5-7----
---7-7------------------------------5-5--------------------------------0-5----

(Guitar 2)
Car ry your own load.
BRIDGE
------------------------------------------------------------------------------------------
------------------------------------------------------------------------------------------
---------------------------4-8---(\3)-xxx-8-8----------------------------8---(\3)-xx-8-8--
-4-4-6-4~~--4-4-6-4~-4h6-6---9---(\3)-xxx-9-9--4-4-6-4~~--4-4-6-4~-----4-9---(\3)-xx-9-9--
-----------------------------9---(\3)-xxx-9-9-----------------------7-7--9---(\3)-xx-9-9--
-----------------------------7---(\3)-xxx-7-7----------------------------7---(\3)-xx-7-7--

Why make a hard road? Why can't we be friends?
------------------------------------------------------------------------------------------
------------------------------------------------------------------------------------------
---------------------------4-8---(\3)-xxx-8-8----------------------------8---(\3)-xx-8-8--
-4-4-6-4~~--4-4-6-4~-4h6-6---9---(\3)-xxx-9-9--4-4-6-4~~--4-4-6-4~-----4-9---(\3)-xx-9-9--
-----------------------------9---(\3)-xxx-9-9-----------------------7-7--9---(\3)-xx-9-9--
-----------------------------7---(\3)-xxx-7-7----------------------------7---(\3)-xx-7-7--

No need to hurry. We'll meet in the end.
LEAD
------------------------------------------------------------------------------
------------------------------------------------------------------------------
------------------------------------------------------------------------------
------------------------------------------------------------------------------
------------------------------------------------------------------------------
------------------------------------------------------------------------------

(Guitar 1)
------------------------------------------------------------------------------
------------------------------------------------------------------------------
------------------------------------------------------------------------------
--14^(16)p12-----------------14^(16)p12---------------------------------------
------------14-14~~~~~~~~~~~~------------14-12~~~~~~~~~~~~~~------------------
------------------------------------------------------------------------------

(Guitar 2)
-----------------------------------------------------------------
-----2-4p2---2-4~-4-4p2---4~(/7)--2-4p2----2-4~-4-4p2---4~(/7)---
-----2-4p2-4-2-4~-4-4p2-4-4~(/7)--2-4p2--4-2-4~-4-4p2-4-4~(/7)---
-----------4------------4----------------4------------4----------
-2-2----------------------------2-----------------------------2--
-----------------------------------------------------------------

(Guitar 3)
---------------------------------------------------------------------------------------
--12------12-----\(7)----12------12------\(7)---15------15-----\(12)---15------15------
--14^(16)-14^(16)\(9)----14^(16)-14^(16))\(9)---17^(19)-17^(19)\(14)---17^(19)-17^(19)-
---------------------------------------------------------------------------------------
---------------------------------------------------------------------------------------
---------------------------------------------------------------------------------------

(Guitar 1)
------------------------------------------------------------------------------
------------------------------------------------------------------------------
------------------------------------------------------------------------------
--14^(16)p12-----------------14^(16)p12---------------------------------------
------------14-14~~~~~~~~~~~~----------114-12~~~~~~~~~~~~~~-------------------
------------------------------------------------------------------------------

(Guitar 2)
-----------------------------------------------------------------
-----2-4p2---2-4~-4-4p2---4~(/7)--2-4p2----2-4~-4-4p2---4~(/7)---
-----2-4p2-4-2-4~-4-4p2-4-4~(/7)--2-4p2--4-2-4~-4-4p2-4-4~(/7)---
-----------4------------4----------------4------------4----------
---2----------------------------2-----------------------------2--
-----------------------------------------------------------------

(Guitar 3)
------------------------------------------------------------------------------
--13~~~--13~~-----------------------------------------------------------------
--16~~~--16~~-----------------------4-4~~---4-4~----4-6-6^(8)-6-4~------------
--------------15\(7)------------4h7------4h7-----4h7--------------------------
--------------15\(7)----------------------------------------------------------
---------------------(5)/7~~/(9)----------------------------------------------

(Guitar 1)
-----------------------------------------------------------------
-----2-4p2---2-4~-4-4p2---4~(/7)--2-4p2----2-4~-4-4p2---4~(/7)---
-----2-4p2-4-2-4~-4-4p2-4-4~(/7)--2-4p2--4-2-4~-4-4p2-4-4~(/7)---
-----------4------------4----------------4------------4----------
---2----------------------------2-----------------------------2--
-----------------------------------------------------------------

(Guitar 2)
----------------------------------------------------------
---------9-9----------------------------------------------
--4-6^(8)---6~-4--4-6^(9)-4-6-7-4-4-6-6^^(9)-4-4----------
----------------6----------------6------------------------
----------------------------------------------------------
----------------------------------------------------------

(Guitar 1)
-----------------------------------------------------------------
-----2-4p2---2-4~-4-4p2---4~(/7)--2-4p2----2-4~-4-4p2---4~(/7)---
-----2-4p2-4-2-4~-4-4p2-4-4~(/7)--2-4p2--4-2-4~-4-4p2-4-4~(/7)---
-----------4------------4----------------4------------4----------
---2----------------------------2-----------------------------2--
-----------------------------------------------------------------

(Guitar 2)
-------------------------------------------------------------
------------12~\(10)-----------12~\(10)----------------------
-------10-12-------------10-12-----------6-6^(9)-4-4~--------
-(9)/12------------(9)/12------------------------------------
-------------------------------------------------------------
-------------------------------------------------------------
-----------------------------------------------------------------
-----2-4p2---2-4~-4-4p2---4~(/7)--2-4p2----2-4~-4-4p2---4~(/7)---
-----2-4p2-4-2-4~-4-4p2-4-4~(/7)--2-4p2--4-2-4~-4-4p2-4-4~(/7)---
-----------4------------4----------------4------------4----------
---2----------------------------2-----------------------------2--
-----------------------------------------------------------------

(Guitar 2)
---------------------------------------------------------------------------------
------7-------------------7--------------------7-------------------7-------------
-6^(9)-6^(9`)-6-4-4--6^(9)-6^(9`)-6-4-4---6^(9)-6^(9`)-6-4-4--6^(9)-6^(9`)-6-4-4-
---------------------------------------------------------------------------------
---------------------------------------------------------------------------------
---------------------------------------------------------------------------------

(Guitar 1)
-----------------------------------------------------------------
-----2-4p2---2-4~-4-4p2---4~(/7)--2-4p2----2-4~-4-4p2---4~(/7)---
-----2-4p2-4-2-4~-4-4p2-4-4~(/7)--2-4p2--4-2-4~-4-4p2-4-4~(/7)---
-----------4------------4----------------4------------4----------
---2----------------------------2-----------------------------2--
-----------------------------------------------------------------

(Guitar 2)
---------------------------------------------------------------
-5^(7-7-7-7-7-7)------7---3------------------------------------
-----------------6^(8)-6-4-4-2---------------------------------
-------------------------------4-3-2-2-------------------------
------------------------------------5--55-4-2------------------
---------------------------------------------------------------

(Guitar 1)
-----------------------------------------------------------------
-----2-4p2---2-4~-4-4p2---4~(/7)--2-4p2----2-4~-4-4p2---4~(/7)---
-----2-4p2-4-2-4~-4-4p2-4-4~(/7)--2-4p2--4-2-4~-4-4p2-4-4~(/7)---
-----------4------------4----------------4------------4----------
---2----------------------------2-----------------------------2--
-----------------------------------------------------------------

(Guitar 2)
------------------------------------------------------------
------------------------------------------------------------
------------------------------------------------------------
------------------------------------------------------------
-2--2-2--2-2--2-2--2-2--2-2--2-2--2-2--22-2--2-2------------
------------------------------------------------------------

(Guitar 1)
BRIDGE
------------------------------------------------------------------------------------------
------------------------------------------------------------------------------------------
---------------------------4-8---(\3)-xxx-8-8----------------------------8---(\3)-xx-8-8--
-4-4-6-4~~--4-4-6-4~-4h6-6---9---(\3)-xxx-9-9--4-4-6-4~~--4-4-6-4~-----4-9---(\3)-xx-9-9--
-----------------------------9---(\3)-xxx-9-9-----------------------7-7--9---(\3)-xx-9-9--
-----------------------------7---(\3)-xxx-7-7----------------------------7---(\3)-xx-7-7--

Why make a hard road? Why can't we be friends?
------------------------------------------------------------------------------------------
------------------------------------------------------------------------------------------
---------------------------4-8---(\3)-xxx-8-8----------------------------8---(\3)-xx-8-8--
-4-4-6-4~~--4-4-6-4~-4h6-6---9---(\3)-xxx-9-9--4-4-6-4~~--4-4-6-4~-----4-9---(\3)-xx-9-9--
-----------------------------9---(\3)-xxx-9-9-----------------------7-7--9---(\3)-xx-9-9--
-----------------------------7---(\3)-xxx-7-7----------------------------7---(\3)-xx-7-7--

No need to hurry. Let's sing it again.
-----------------------------------------------------------------
-----2-4p2---2-4~-4-4p2---4~(/7)--2-4p2----2-4~-4-4p2---4~(/7)---
-----2-4p2-4-2-4~-4-4p2-4-4~(/7)--2-4p2--4-2-4~-4-4p2-4-4~(/7)---
-----------4------------4----------------4------------4----------
-2-2----------------------------2-----------------------------2--
-----------------------------------------------------------------
-----------------------------------------------------------------
-----2-4p2---2-4~-4-4p2---4~(/7)--2-4p2----2-4~-4-4p2---4~(/7)---
-----2-4p2-4-2-4~-4-4p2-4-4~(/7)--2-4p2--4-2-4~-4-4p2-4-4~(/7)---
-----------4------------4----------------4------------4----------
---2----------------------------2-----------------------------2--
-----------------------------------------------------------------

Others sharing, mothers caring, night time falling victim to the
-----------------------------------------------------------------
-----2-4p2---2-4~-4-4p2---4~(/7)--2-4p2----2-4~-4-4p2---4~(/7)---
-----2-4p2-4-2-4~-4-4p2-4-4~(/7)--2-4p2--4-2-4~-4-4p2-4-4~(/7)---
-----------4------------4----------------4------------4----------
---2----------------------------2-----------------------------2--
-----------------------------------------------------------------

dawn Shadows mourn.
-----------------------------------------------------------------
-----2-4p2---2-4~-4-4p2---4~(/7)--2-4p2----2-4~-4-4p2---4~(/7)---
-----2-4p2-4-2-4~-4-4p2-4-4~(/7)--2-4p2--4-2-4~-4-4p2-4-4~(/7)---
-----------4------------4----------------4------------4----------
---2----------------------------2-----------------------------2--
-----------------------------------------------------------------

Days are falling, time is calling to the earth another life is
-----------------------------------------------------------------
-----2-4p2---2-4~-4-4p2---4~(/7)--2-4p2----2-4~-4-4p2---4~(/7)---
-----2-4p2-4-2-4~-4-4p2-4-4~(/7)--2-4p2--4-2-4~-4-4p2-4-4~(/7)---
-----------4------------4----------------4------------4----------
---2----------------------------2-----------------------------2--
-----------------------------------------------------------------

born. Love lies drawn.
CHOURSE
    [B]  [B]      [B]  [B]      [B]  [B]      [B]  [B]      [A] [A] [A] [A] [A] [A] [A] [A] [E] [A]                                                                                               
------------------------------------------------------------------------------
------------------------------------------------------------------------------
-xx-8-8--xx-8-8--xx-8-8--xx-8-8--xx-6-6---xx-6-6--xx-6-6--xx-6-6--xx--7-9-----
-xx-9-9--xx-9-9--xx-9-9--xx-9-9--xx-7-7---xx-7-7--xx-7-7--xx-7-7--xx--7-7-----
-xx-9-9--xx-9-9--xx-9-9--xx-9-9--xx-7-7---xx-7-7--xx-7-7--xx-7-7--xx--5-7-----
-xx-7-7--xx-7-7--xx-7-7--xx-7-7--xx-5-5---xx-5-5--xx-5-5--xx-5-5--xx--0-5-----

(Guitar 1)
------------------------------------------------------------------------------
------------------------------------------------------------------------------
---8-8------------------------------6-6--------------------------------7-9----
---9-9------------------------------7-7--------------------------------7-7----
---9-9-(Let ring)-------------------7-7---(Let ring)-------------------5-7----
---7-7------------------------------5-5--------------------------------0-5----

(Guitar 2)
Oh it's a hard road.
      [B]  [B]      [B]  [B]      [B]  [B]      [B]  [B]      [A] [A] [A] [A] [A] [A] [A] [A] [E] [A]                                                                                               
------------------------------------------------------------------------------
------------------------------------------------------------------------------
-xx-8-8--xx-8-8--xx-8-8--xx-8-8--xx-6-6---xx-6-6--xx-6-6--xx-6-6--xx--7-9-----
-xx-9-9--xx-9-9--xx-9-9--xx-9-9--xx-7-7---xx-7-7--xx-7-7--xx-7-7--xx--7-7-----
-xx-9-9--xx-9-9--xx-9-9--xx-9-9--xx-7-7---xx-7-7--xx-7-7--xx-7-7--xx--5-7-----
-xx-7-7--xx-7-7--xx-7-7--xx-7-7--xx-5-5---xx-5-5--xx-5-5--xx-5-5--xx--0-5-----

(Guitar 1)
------------------------------------------------------------------------------
------------------------------------------------------------------------------
---8-8------------------------------6-6--------------------------------7-9----
---9-9------------------------------7-7--------------------------------7-7----
---9-9-(Let ring)-------------------7-7---(Let ring)-------------------5-7----
---7-7------------------------------5-5--------------------------------0-5----

(Guitar 2)
Car ry your own load.
    [B]  [B]      [B]  [B]      [B]  [B]      [B]  [B]      [A] [A] [A] [A] [A] [A] [A] [A] [E] [A]                                                                                               
------------------------------------------------------------------------------
------------------------------------------------------------------------------
-xx-8-8--xx-8-8--xx-8-8--xx-8-8--xx-6-6---xx-6-6--xx-6-6--xx-6-6--xx--7-9-----
-xx-9-9--xx-9-9--xx-9-9--xx-9-9--xx-7-7---xx-7-7--xx-7-7--xx-7-7--xx--7-7-----
-xx-9-9--xx-9-9--xx-9-9--xx-9-9--xx-7-7---xx-7-7--xx-7-7--xx-7-7--xx--5-7-----
-xx-7-7--xx-7-7--xx-7-7--xx-7-7--xx-5-5---xx-5-5--xx-5-5--xx-5-5--xx--0-5-----

(Guitar 1)
------------------------------------------------------------------------------
------------------------------------------------------------------------------
---8-8------------------------------6-6--------------------------------7-9----
---9-9------------------------------7-7--------------------------------7-7----
---9-9-(Let ring)-------------------7-7---(Let ring)-------------------5-7----
---7-7------------------------------5-5--------------------------------0-5----

(Guitar 2)
Oh it's a hard road.
    [B]  [B]      [B]  [B]      [B]  [B]      [B]  [B]      [A] [A] [A] [A] [A] [A] [A] [A] [E] [A]                                                                                               
------------------------------------------------------------------------------
------------------------------------------------------------------------------
-xx-8-8--xx-8-8--xx-8-8--xx-8-8--xx-6-6---xx-6-6--xx-6-6--xx-6-6--xx--7-9-----
-xx-9-9--xx-9-9--xx-9-9--xx-9-9--xx-7-7---xx-7-7--xx-7-7--xx-7-7--xx--7-7-----
-xx-9-9--xx-9-9--xx-9-9--xx-9-9--xx-7-7---xx-7-7--xx-7-7--xx-7-7--xx--5-7-----
-xx-7-7--xx-7-7--xx-7-7--xx-7-7--xx-5-5---xx-5-5--xx-5-5--xx-5-5--xx--0-5-----

(Guitar 1)
------------------------------------------------------------------------------
------------------------------------------------------------------------------
---8-8------------------------------6-6--------------------------------7-9----
---9-9------------------------------7-7--------------------------------7-7----
---9-9-(Let ring)-------------------7-7---(Let ring)-------------------5-7----
---7-7------------------------------5-5--------------------------------0-5----

(Guitar 2)
Oh it's a hard road.
    [B]  [B]      [B]  [B]      [B]  [B]      [B]  [B]      [A] [A] [A] [A] [A] [A] [A] [A] [E] [A]                                                                                               
------------------------------------------------------------------------------
------------------------------------------------------------------------------
-xx-8-8--xx-8-8--xx-8-8--xx-8-8--xx-6-6---xx-6-6--xx-6-6--xx-6-6--xx--7-9-----
-xx-9-9--xx-9-9--xx-9-9--xx-9-9--xx-7-7---xx-7-7--xx-7-7--xx-7-7--xx--7-7-----
-xx-9-9--xx-9-9--xx-9-9--xx-9-9--xx-7-7---xx-7-7--xx-7-7--xx-7-7--xx--5-7-----
-xx-7-7--xx-7-7--xx-7-7--xx-7-7--xx-5-5---xx-5-5--xx-5-5--xx-5-5--xx--0-5-----

(Guitar 1)
------------------------------------------------------------------------------
------------------------------------------------------------------------------
---8-8------------------------------6-6--------------------------------7-9----
---9-9------------------------------7-7--------------------------------7-7----
---9-9-(Let ring)-------------------7-7---(Let ring)-------------------5-7----
---7-7------------------------------5-5--------------------------------0-5----

(Guitar 2)
Forget all your sorrows, don't live in the past, and look to the future 'cause
life goes too fast, you know.
Oh it's a hard road.
------------------------------------------------------------------------------
------------------------------------------------------------------------------
-xx-8-8--xx-8-8--xx-8-8--xx-8-8--xx-6-6---xx-6-6--xx-6-6--xx-6-6--xx--7-9-----
-xx-9-9--xx-9-9--xx-9-9--xx-9-9--xx-7-7---xx-7-7--xx-7-7--xx-7-7--xx--7-7-----
-xx-9-9--xx-9-9--xx-9-9--xx-9-9--xx-7-7---xx-7-7--xx-7-7--xx-7-7--xx--5-7-----
-xx-7-7--xx-7-7--xx-7-7--xx-7-7--xx-5-5---xx-5-5--xx-5-5--xx-5-5--xx--0-5-----

(Guitar 1)
------------------------------------------------------------------------------
------------------------------------------------------------------------------
---8-8------------------------------6-6--------------------------------7-9----
---9-9------------------------------7-7--------------------------------7-7----
---9-9-(Let ring)-------------------7-7---(Let ring)-------------------5-7----
---7-7------------------------------5-5--------------------------------0-5----

(Guitar 2)
(1) Forget all your sorrows, don't live in the past, and look to the future 'cause
life goes too fast, you know.
(2) Oh it's a hard road.
(3) Oooh oohuh, oooh ooohuh, oooh ooohuh, oooh ooohuh oooh ooohuh
    [B]  [B]      [B]  [B]      [B]  [B]      [B]  [B]      [A] [A] [A] [A] [A] [A] [A] [A] [E] [A]                                                                                               
------------------------------------------------------------------------------
------------------------------------------------------------------------------
-xx-8-8--xx-8-8--xx-8-8--xx-8-8--xx-6-6---xx-6-6--xx-6-6--xx-6-6--xx--7-9-----
-xx-9-9--xx-9-9--xx-9-9--xx-9-9--xx-7-7---xx-7-7--xx-7-7--xx-7-7--xx--7-7-----
-xx-9-9--xx-9-9--xx-9-9--xx-9-9--xx-7-7---xx-7-7--xx-7-7--xx-7-7--xx--5-7-----
-xx-7-7--xx-7-7--xx-7-7--xx-7-7--xx-5-5---xx-5-5--xx-5-5--xx-5-5--xx--0-5-----

(Guitar 1)
------------------------------------------------------------------------------
------------------------------------------------------------------------------
---8-8------------------------------6-6--------------------------------7-9----
---9-9------------------------------7-7--------------------------------7-7----
---9-9-(Let ring)-------------------7-7---(Let ring)-------------------5-7----
---7-7------------------------------5-5--------------------------------0-5----

(Guitar 2)
(1) Forget all your sorrows, don't live in the past, and look to the future 'cause
life goes too fast, you know.
(2) Oh it's a hard road.
(3) Oooh oohuh, oooh ooohuh, oooh ooohuh, oooh ooohuh oooh ooohuh
    [B]  [B]      [B]  [B]      [B]  [B]      [B]  [B]      [A] [A] [A] [A] [A] [A] [A] [A] [E] [A]                                                                                               
------------------------------------------------------------------------------
------------------------------------------------------------------------------
-xx-8-8--xx-8-8--xx-8-8--xx-8-8--xx-6-6---xx-6-6--xx-6-6--xx-6-6--xx--7-9-----
-xx-9-9--xx-9-9--xx-9-9--xx-9-9--xx-7-7---xx-7-7--xx-7-7--xx-7-7--xx--7-7-----
-xx-9-9--xx-9-9--xx-9-9--xx-9-9--xx-7-7---xx-7-7--xx-7-7--xx-7-7--xx--5-7-----
-xx-7-7--xx-7-7--xx-7-7--xx-7-7--xx-5-5---xx-5-5--xx-5-5--xx-5-5--xx--0-5-----

(Guitar 1)
------------------------------------------------------------------------------
------------------------------------------------------------------------------
---8-8------------------------------6-6--------------------------------7-9----
---9-9------------------------------7-7--------------------------------7-7----
---9-9-(Let ring)-------------------7-7---(Let ring)-------------------5-7----
---7-7------------------------------5-5--------------------------------0-5----

(Guitar 2) (Begin fade)
(1) Forget all your sorrows, don't live in the past, and look to the future 'cause
life goes too fast, you know.
(2) Oh it's a hard road.
(3) Oooh oohuh, oooh ooohuh, oooh ooohuh, oooh ooohuh oooh ooohuh
    [B]  [B]      [B]  [B]      [B]  [B]      [B]  [B]      [A] [A] [A] [A] [A] [A] [A] [A] [E] [A]                                                                                               
------------------------------------------------------------------------------
------------------------------------------------------------------------------
-xx-8-8--xx-8-8--xx-8-8--xx-8-8--xx-6-6---xx-6-6--xx-6-6--xx-6-6--xx--7-9-----
-xx-9-9--xx-9-9--xx-9-9--xx-9-9--xx-7-7---xx-7-7--xx-7-7--xx-7-7--xx--7-7-----
-xx-9-9--xx-9-9--xx-9-9--xx-9-9--xx-7-7---xx-7-7--xx-7-7--xx-7-7--xx--5-7-----
-xx-7-7--xx-7-7--xx-7-7--xx-7-7--xx-5-5---xx-5-5--xx-5-5--xx-5-5--xx--0-5-----

(Guitar 1)
------------------------------------------------------------------------------
------------------------------------------------------------------------------
---8-8------------------------------6-6--------------------------------7-9----
---9-9------------------------------7-7--------------------------------7-7----
---9-9-(Let ring)-------------------7-7---(Let ring)-------------------5-7----
---7-7------------------------------5-5--------------------------------0-5----

(Guitar 2)
(1) Forget all your sorrows, don't live in the past, and look to the future 'cause
life goes too fast, you know.
(2) Oh it's a hard road.
(3) Oooh oohuh, oooh ooohuh, oooh ooohuh, oooh ooohuh oooh ooohuh

Important: The song above is NOT stored on the Chordie server. The original song is hosted at www.xguitar.com. Chordie works as a search engine and provides on-the-fly formatting. Chordie does not index songs against artists'/composers' will. To remove this song please click here.

Text color:
Chord color:
Chord grids: 
Font size:    
Page size: 

A B E
variations - click chord images

Login - add to songbook

Transpose chords

Tuning

Rating click stars to rate

Layout
Accuracy

SHARE PAGE  




You need to log in to post comments