Electric Funeral

Black Sabbath


 ##
 #                     From The Headless Cross Tab Page                     #

Start Date:
Finished: 9:09 AM 10/18/97
Updated: 12:57 10/25/00
Updated: 05:18 3/19/01
Black Sabbath - Hand of Doom
From Black Sabbath's "Paranoid" Album 1970
Tuning Info: Standard Tuning, Adagio, 66 beats/min, 4/4 count
NOTE: Lyrics written here may not align with music, due to space constraints.
The lyrics may be incorrect
(f)
------------------------------------------------------------------------------
------------------------------------------------------------------------------
------------------------------------------------------------------------------
------------------------------------------------------------------------------
-----2-3-2~--------------2-3-2~-------------2-3-2~-------------2-3-2~---------
-0-0-------0-2-3-2~--0-0-------0-2-3-2~--0-0-------0-2-3-2~-0-0------0-2-3-2~-

-----------------------------------------
-----------------------------------------
-----------------------------------------
-----------------------------------------
---------2--1--0------------2--1--0------
-0--0-0----------3-0-0-0-0----------3----

Reflects in the sky, warn you you're gonna die.
-----------------------------------------
-----------------------------------------
-----------------------------------------
-----------------------------------------
---------2--1--0------------2--1--0------
-0-0-0-0----------3-0-0-0-0---------3----

Storm coming you'd better hide from the atomic time(?)
-----------------------------------------
-----------------------------------------
-----------------------------------------
-----------------------------------------
---------2--1--0------------2--1--0------
-0-0-0-0----------3-0-0-0-0---------3----

Flashes in the sky turn houses into stye
-----------------------------------------
-----------------------------------------
-----------------------------------------
-----------------------------------------
---------2--1--0------------2--1--0------
-0-0-0-0----------3-0-0-0-0---------3----

Turns people into clay, radiation minds decay
------------------------------------------------------------------------------
------------------------------------------------------------------------------
------------------------------------------------------------------------------
------------------------------------------------------------------------------
-----2-3-2~--------------2-3-2~-------------2-3-2~-------------2-3-2~---------
-0-0-------0-2-3-2~--0-0-------0-2-3-2~--0-0-------0-2-3-2~-0-0------0-2-3-2~-

-----------------------------------------
-----------------------------------------
-----------------------------------------
-----------------------------------------
---------2--1--0------------2--1--0------
-0--0-0----------3-0-0-0-0----------3----

Robot minds of robot slaves, lead them to atomic graves
-----------------------------------------
-----------------------------------------
-----------------------------------------
-----------------------------------------
---------2--1--0------------2--1--0------
-0-0-0-0----------3-0-0-0-0---------3----

Plastic flowers, melting sun. Fading moon falls apart
-----------------------------------------
-----------------------------------------
-----------------------------------------
-----------------------------------------
---------2--1--0------------2--1--0------
-0-0-0-0----------3-0-0-0-0---------3----

Dieing world of radiation, victims of man's frustration
-----------------------------------------
-----------------------------------------
-----------------------------------------
-----------------------------------------
---------2--1--0------------2--1--0------
-0-0-0-0----------3-0-0-0-0---------3----

Burning globe of hot searing fire, like electric funeral fire.
------------------------------------------------------------------------------
------------------------------------------------------------------------------
------------------------------------------------------------------------------
------------------------------------------------------------------------------
-----2-3-2~--------------2-3-2~-------------2-3-2~-------------2-3-2~---------
-0-0-------0-2-3-2~--0-0-------0-2-3-2~--0-0-------0-2-3-2~-0-0------0-2-3-2~-

BRIDGE
------------
------------
------------
------------
------------
-0----------

(wah off)
BRIDGE
 E5D#5D5E5D#5D5E5D#5D5E5D#5D5E5D#5D5
----------------------------------------------------------------------
----------------------------------------------------------------------
----------------------------------------------------------------------
----------------------------------------------------------------------
-14--13--12----14--13--12----14--13--12-----14--13--12----14--13--12--
-12--11--10----12--11--10----12--11--10-----12--11--10----12--11--10--

(wah off)
(132 beats/min feel)
 EDEGsus2EDEGsus2
------------------------------------------------------------
---------12-12-12-12-12-------------------12-12-12-12-12----
---------12-12-12-12-12-------------------12-12-12-12-12----
---------12-12-12-12-12-------------------12-12-12-12-12----
-14-12-14------------------------14-12-114------------------
-12-10-12------------------------12-10-112------------------

 EDEGsus2EDEGsus2
------------------------------------------------------------
---------12-12-12-12-12-------------------12-12-12-12-12----
---------12-12-12-12-12-------------------12-12-12-12-12----
---------12-12-12-12-12-------------------12-12-12-12-12----
-14-12-14------------------------14-12-114------------------
-12-10-12------------------------12-10-112------------------
------------------------------------------------------------------------------
-------8-10-8-10/(14)------8-10/12-10-8-------8-10-8-10/(14)-----8-10/12-10-8-
-(6)/9~--------------(6)/9~--------------(6)/9--------------(6)/9-------------
------------------------------------------------------------------------------
------------------------------------------------------------------------------
------------------------------------------------------------------------------

Buildings crashing down to a clap heap round. Metals turn to wood, eyes melt
into blood.
 EDEGsus2EDEGsus2
------------------------------------------------------------
---------12-12-12-12-12-------------------12-12-12-12-12----
---------12-12-12-12-12-------------------12-12-12-12-12----
---------12-12-12-12-12-------------------12-12-12-12-12----
-14-12-14------------------------14-12-114------------------
-12-10-12------------------------12-10-112------------------
------------------------------------------------------------------------------
-------8-10-8-10/(14)------8-10/12-10-8-------8-10-8-10/(14)-----8-10/12-10-8-
-(6)/9~--------------(6)/9~--------------(6)/9--------------(6)/9-------------
------------------------------------------------------------------------------
------------------------------------------------------------------------------
------------------------------------------------------------------------------

Earth lies in debris, clouds cry all the day, tearing body rain, is the
bloody fate.
-12------12------12------12-----\(9)----------
-14^(16)-14^(16)-14^(16)-14^(16)\(12^(144))---
----------------------------------------------
----------------------------------------------
----------------------------------------------
----------------------------------------------

E l ect tric Fun er al
12------12------12------12-----\(9)---------
-14^(16)-14^(16)-14^(16)-14^(16)\(12^(144))---
----------------------------------------------
----------------------------------------------
----------------------------------------------
----------------------------------------------

E l ect tric Fun er al
-12------12------12------12-----\(9)----------
-14^(16)-14^(16)-14^(16)-14^(16)\(12^(144))---
----------------------------------------------
----------------------------------------------
----------------------------------------------
----------------------------------------------

E l ect tric Fun er al
-------------------------------------------
----1-----3------3-----3------5-/(12\7)----
-3^(5)-5^(7)--5^(7)-5^(7)--7^(9)/(14\9)----
-------------------------------------------
-------------------------------------------
-------------------------------------------
-------------------------------------------
----1-----3------3-----3------5-/(12\7)----
-3^(5)-5^(7)--5^(7)-5^(7)--7^(9)/(14\9)----
-------------------------------------------
-------------------------------------------
-------------------------------------------
-------------------------------------------
----1-----3------3-----3------5------------
-3^(5)-5^(7)--5^(7)-5^(7)--7^(9)-----------
-------------------------------------------
-------------------------------------------
-------------------------------------------

(66 beats/min feel)
------------------------------------------------------------------------------
------------------------------------------------------------------------------
------------------------------------------------------------------------------
------------------------------------------------------------------------------
-----2-3-2~--------------2-3-2~-------------2-3-2~-------------2-3-2~---------
-0-0-------0-2-3-2~--0-0-------0-2-3-2~--0-0-------0-2-3-2~-0-0------0-2-3-2~-

-----------------------------------------
-----------------------------------------
-----------------------------------------
-----------------------------------------
--------2--1--0-------------2--1--0------
-0--0-0----------3-0-0-0-0----------3----

And so in the sky shines the electric eye
-----------------------------------------
-----------------------------------------
-----------------------------------------
-----------------------------------------
---------2--1--0------------2--1--0------
-0-0-0-0----------3-0-0-0-0---------3----

Supernatural king takes earth under his wing
-----------------------------------------
-----------------------------------------
-----------------------------------------
-----------------------------------------
---------2--1--0------------2--1--0------
-0-0-0-0----------3-0-0-0-0---------3----

Heaven's golden chourse sings, hell's angles flap their wings
-----------------------------------------
-----------------------------------------
-----------------------------------------
-----------------------------------------
---------2--1--0------------2--1--0------
-0-0-0-0----------3-0-0-0-0---------3----

Evil souls fall to hell, ever trapped in a burning cell.
------------------------------------------------------------------------------
------------------------------------------------------------------------------
------------------------------------------------------------------------------
------------------------------------------------------------------------------
-----2-3-2~--------------2-3-2~-------------2-3-2~-------------2-3-2~---------
-0-0-------0-2-3-2~--0-0-------0-2-3-2~--0-0-------0-2-3-2~-0-0------0-2-3-2~-

------------------------------------------------------------------
------------------------------------------------------------------
------------------------------------------------------------------
------------------------------------------------------------------
-------2-1-0-----------2-1-0-----------22-1-0-----------2-1-0-----
-0-0-0-------3-0-0-0-0-------3-0-0-0-0--------3-0-0-0-0-------3---

------------------------------------------------------------------
------------------------------------------------------------------
------------------------------------------------------------------
------------------------------------------------------------------
-------2-1-0-----------2-1-0-----------22-1-0-----------2-1-0-----
-0-0-0-------3-0-0-0-0-------3-0-0-0-0--------3-0-0-0-0-------3---



D D#5 D5 E E5 Gsus2
variations - click chord images
Transpose chords:
Tuning:
Cool service:
View: Size:
A  A  A
Rating:
Layout:
  • Currently 3.3/5 Stars.
  • 1
  • 2
  • 3
  • 4
  • 5
 
Accuracy:
  • Currently 3/5 Stars.
  • 1
  • 2
  • 3
  • 4
  • 5
 
click stars to rate
Chordie recommends:
Get acoustic guitar lessons and electric guitar lessons at JamPlay.com
Songbook:
Login to add this song to your songbook
Support the artist
Preview/buy this song
MSN Music
Why this non-profit ad?

 
login to add comments/video/corrections