eToCache5 = ""; ?> Iron Man by Black Sabbath - guitar chords, guitar tabs and lyrics - chordie

Iron Man

Black Sabbath


 ##
 #                     From The Headless Cross Tab Page                     #

Start Date:
Finished: 10:51 PM 10/17/97
Updated: 07:33 10/24/00
Black Sabbath - Iron Man
From Black Sabbath's "Paranoid" Album 1970
Tuning Info: Standard Tuning, 440Hz, Adagio, 78 Beats/min., 4/4 count
NOTE: Lyrics written may not align with music.I wrote the chords names at
the top the main rhythm measure because of space constraints.
(f)
------------------------------------------------------------------------------------
------------------------------------------------------------------------------------
------------------------------------------------------------------------------------
------------------------------------------------------------------------------------
------------------------------------------------------------------------------------

I am Iron Man
B5 D5/E5 G5\F#5 D5 D5/E5 E5 B5 D5/E5 G5\F#5 D5 D5/E5 E5
-----------------------------------------------------------------------------
-----------------------------------------------------------------------------
-----------------------------------------------------------------------------
-----------------------------------------------------------------------------
----7-7/9-9-12\11-12\11-12\11-7-7/9-9-----7-7/9-9--12\11-12\11-12\11-7-7/9-9-
-9--5-5/7-7-10\-9-10\-9-10\-9-5-5/7-7--9--5-5/7-7--10\-9-10\-9-10\-9-5-5/7-7-
-7-------------------------------------7-------------------------------------

B5 D5/E5 G5\F#5 D5 D5/E5 E5 B5 D5/E5 G5\F#5 D5 D5/E5 E5
-----------------------------------------------------------------------------
-----------------------------------------------------------------------------
-----------------------------------------------------------------------------
-----------------------------------------------------------------------------
----7-7/9-9-12\11-12\11-12\11-7-7/9-9-----7-7/9-9--12\11-12\11-12\11-7-7/9-9-
-9--5-5/7-7-10\-9-10\-9-10\-9-5-5/7-7--9--5-5/7-7--10\-9-10\-9-10\-9-5-5/7-7-
-7-------------------------------------7-------------------------------------
-------------------------------------------------------
-------------------------------------------------------
-------------------------------------------------------
----------------------5p4--5p4---5p4-------------------
-----5--5/7----7------------------------5--5/7-7/(12)--
-7-----------------------------------------------------

Has he lost his mind can he see or is he blind?
-------------------------------------------------------
-------------------------------------------------------
-------------------------------------------------------
----------------------5p4--5p4---5p4-------------------
-----5--5/7----7------------------------5--5/7-7/(12)--
-7-----------------------------------------------------

Can he walk at all or if he moves will he fall?
B5 D5/E5 G5\F#5 D5 D5/E5 E5 B5 D5/E5 G5\F#5 D5 D5/E5 E5
-----------------------------------------------------------------------------
-----------------------------------------------------------------------------
-----------------------------------------------------------------------------
-----------------------------------------------------------------------------
----7-7/9-9-12\11-12\11-12\11-7-7/9-9-----7-7/9-9--12\11-12\11-12\11-7-7/9-9-
-9--5-5/7-7-10\-9-10\-9-10\-9-5-5/7-7--9--5-5/7-7--10\-9-10\-9-10\-9-5-5/7-7-
-7-------------------------------------7-------------------------------------
-------------------------------------------------------
-------------------------------------------------------
-------------------------------------------------------
----------------------5p4--5p4---5p4-------------------
-----5--5/7----7------------------------5--5/7-7/(12)--
-7-----------------------------------------------------

Is he alive or dead has he thoughts within his head?
-------------------------------------------------------
-------------------------------------------------------
-------------------------------------------------------
----------------------5p4--5p4---5p4-------------------
-----5--5/7----7------------------------5--5/7-7/(12)--
-7-----------------------------------------------------

We'll just pass him him there. Why should we even care?
------------------------------------------------------------------------
------------------------------------------------------------------------
------------------------------------------------------------------------
------------------------------------------------------------------------
----------5^(1/2)---------------------------5^(1/2)---------------------
-(5)/7-7----------7--6-5-5-5-0-4-5-5-6--7-7--------7--6-5-5-5-0-4-5-5-6-
------------------------------
------------------------------
------------------------------
------------------------------
----------5^(1/2)-------------
-(5)/7-7----------7--6-5-5-5--

B5 D5/E5 G5\F#5 D5 D5/E5 E5 B5 D5/E5 G5\F#5 D5 D5/E5 E5
-----------------------------------------------------------------------------
-----------------------------------------------------------------------------
-----------------------------------------------------------------------------
-----------------------------------------------------------------------------
----7-7/9-9-12\11-12\11-12\11-7-7/9-9-----7-7/9-9--12\11-12\11-12\11-7-7/9-9-
-9--5-5/7-7-10\-9-10\-9-10\-9-5-5/7-7--9--5-5/7-7--10\-9-10\-9-10\-9-5-5/7-7-
-7-------------------------------------7-------------------------------------
-------------------------------------------------------
-------------------------------------------------------
-------------------------------------------------------
----------------------5p4--5p4---5p4-------------------
-----5--5/7----7------------------------5--5/7-7/(12)--
-7-----------------------------------------------------

He was turned to steel, in the great magnetic field
-------------------------------------------------------
-------------------------------------------------------
-------------------------------------------------------
----------------------5p4--5p4---5p4-------------------
-----5--5/7----7------------------------5--5/7-7/(12)--
-7-----------------------------------------------------

When he traveled time for the future of mankind.
 ED
--------------------------------------------------
--------------------------------------------------
-9-----------------7------------------------------
-9-----------------7------------------------------
-7-----------------5------------------------------
--------------------------------------------------

Nobody wants him He just stares at the world
 BBBB
---------------------------------------------
---------------------------------------------
---------------------------------------------
------------------7h8h9---------------7h8h9--
-9-9--5h6h7-7h8h9------9-9-5h6h7-7h8h9-------
-7-7-------------------7-7-------------------

 ED
--------------------------------------------------
--------------------------------------------------
-9-----------------7------------------------------
-9-----------------7------------------------------
-7-----------------5------------------------------
--------------------------------------------------

Planning his vengence that he will soon unfold
 BBBB
--------------------------------------------
--------------------------------------------
--------------------------------------------
-----------------7h8h9---------------7h8h9--
-9-9--5h6h7-7h8h9-----9-9-5h6h7-7h8h9-------
-7-7------------------7-7-------------------

B5 D5/E5 G5\F#5 D5 D5/E5 E5 B5 D5/E5 G5\F#5 D5 D5/E5 E5
-----------------------------------------------------------------------------
-----------------------------------------------------------------------------
-----------------------------------------------------------------------------
-----------------------------------------------------------------------------
----7-7/9-9-12\11-12\11-12\11-7-7/9-9-----7-7/9-9--12\11-12\11-12\11-7-7/9-9-
-9--5-5/7-7-10\-9-10\-9-10\-9-5-5/7-7--9--5-5/7-7--10\-9-10\-9-10\-9-5-5/7-7-
-7-------------------------------------7-------------------------------------
-------------------------------------------------------
-------------------------------------------------------
-------------------------------------------------------
----------------------5p4--5p4---5p4-------------------
-----5--5/7----7------------------------5--5/7-7/(12)--
-7-----------------------------------------------------

Now the time is here for Iron Man to spread fear
-------------------------------------------------------
-------------------------------------------------------
-------------------------------------------------------
----------------------5p4--5p4---5p4-------------------
-----5--5/7----7------------------------5--5/7-7/(12)--
-7-----------------------------------------------------

Ven gence from the grave kills the people he once saved.
 ED
--------------------------------------------------
--------------------------------------------------
-9-----------------7------------------------------
-9-----------------7------------------------------
-7-----------------5------------------------------
--------------------------------------------------

Nobody wants him they just turn their heads
 BBBB
-------------------------------------------
-------------------------------------------
-------------------------------------------
---------------7h8h9---------------7h8h9---
-9-9-5h6h7-7h8h9----9-9-5h6h7-7h8h9--------
-7-7----------------7-7--------------------

 ED
--------------------------------------------------
--------------------------------------------------
-9-----------------7------------------------------
-9-----------------7------------------------------
-7-----------------5------------------------------
--------------------------------------------------

Nobody helps him Now he has his revenge
 BBBB
---------------------------------------------
---------------------------------------------
---------------------------------------------
-----------------7h8h9---------------7h8h9---
-9-9--5h6h7-7h8h9-----9-9-5h6h7-7h8h9--------
-7-7------------------7-7--------------------
----------------------------------------------
----------------------------------------------
-6-----------------6--------------------------
--9-6---------------9-6-----------------------
-----10-9-7------------10-9-7-----------------
-----------7-7h9-9-----------7-7h9-9----------

SOLO
--------------------------------------------------
--------------------------5-5-5p2--5-5-5p2--------
--------------------4-4-4--------4--------4/6-6---
----2h4-4p2-2/4-4/6-------------------------------
-2h4-------4--------------------------------------
--------------------------------------------------
-----------9------------------------------------------9-----------------------
------------12p9--------------------------------------9-12-12p9-12p9--12p9----
-11-11^(13)-----11-9-9^(11`9~)-9----------9h11-11^(13)--------11----11-----11-
--------------------------------11---9h11-------------------------------------
------------------------------------------------------------------------------
------------------------------------------------------------------------------

 u
------9-------12^(14-14-14`12)-12p9--9-9----------
-9-12~--12p9-----------------------12----12p9---9-
------------11-------------------------------11---
--------------------------------------------------
--------------------------------------------------
--------------------------------------------------
--------9------------9--------------------------------------------------
-12^(14)--12p9-------9-12p9---------------------------------------------
--------------11^(13)------11-11p9--9-9-----------9-9-------------------
----------------------------------11---11p9---9h11---11p9--9-11-9-------
-------------------------------------------11------------11------11-----
------------------------------------------------------------------------
------------------------------------------------
------------------------------------------------
------------------------------------------------
-9/11--9/11--9/11--9/11--9/11-9/11-9/11-9/11----
------------------------------------------------
------------------------------------------------
------------------------------------------------
------------------------------------------------
------------------------------------------------
-9/11--9/11--9/11--9/11--9/11-9/11-9/11-11-11---
------------------------------------------------
------------------------------------------------
----------------------------------------------
----------------------------------------------
-6-----------------6--------------------------
--9-6---------------9-6-----------------------
-----10-9-7------------10-9-7-----------------
-----------7-7h9-9-----------7-7h9-9----------

 BBBB
---------------------------------------------
---------------------------------------------
---------------------------------------------
------------------7h8h9---------------7h8h9--
-9-9--5h6h7-7h8h9------9-9-5h6h7-7h8h9-------
-7-7-------------------7-7-------------------
---------------------------------------------
---------------------------------------------
---------------------------------------------
------------------7h8h9---------------7h8h9--
-9-9--5h6h7-7h8h9------9-9-5h6h7-7h8h9-------
-7-7-------------------7-7-------------------

B5 D5/E5 G5\F#5 D5 D5/E5 E5 B5 D5/E5 G5\F#5 D5 D5/E5 E5
-----------------------------------------------------------------------------
-----------------------------------------------------------------------------
-----------------------------------------------------------------------------
-----------------------------------------------------------------------------
----7-7/9-9-12\11-12\11-12\11-7-7/9-9-----7-7/9-9--12\11-12\11-12\11-7-7/9-9-
-9--5-5/7-7-10\-9-10\-9-10\-9-5-5/7-7--9--5-5/7-7--10\-9-10\-9-10\-9-5-5/7-7-
-7-------------------------------------7-------------------------------------
-------------------------------------------------------
-------------------------------------------------------
-------------------------------------------------------
-------------------------------------------------------
-----5--5/7----7------10\9-10\9-10\9----5--5/7-7/(12)--
-7-----------------------------------------------------

Heavy boots of lead, fills his victims full of tread
-------------------------------------------------------
-------------------------------------------------------
-------------------------------------------------------
-------------------------------------------------------
-----5--5/7----7------10\9-10\9-10\9----5--5/7-7/(9)---
-7-----------------------------------------------------

 BBBB
------------------------------------------------------------------------
------------------------------------------------------------------------
------------------------------------------------------------------------
------------------------------------------------------------------------
-----9-9--5^(1/2)-----------------------9-9-5^(1/2)---------------------
-(5)/7-7----------7--6-5-5-5-0-4-5-5-6--7-7--------7--6-5-5-5-0-4-5-5-6-

 BB
-------------------------------
-------------------------------
-------------------------------
-------------------------------
-----9-9--5^(1/2)--------------
------------------------------------------------------------------
------------------------------------------------------------------
------------------------------------------------------------------
------------------------------------------------------------------
------------------------------------------------------------------
-0--0-0-0-0-000--0--0-0-0-0-000--0--0-0-0-0-0000--0--0-0-0-0-0000-

------------------------------------------------------------------
------------------------------------------------------------------
------------------------------------------------------------------
------------------------------------------------------------------
------------------------------------------------------------------
-0--0-0-0-0-000--0--0-0-0-0-000--0--0-0-0-0-0000--0--0-0-0-0-0000-

-----------------------------------------
-----------------------------------------
-----------------------------------------
-----------------------------------------
-----------------------------------------

{Behind the nut bend ..pre bend open E to 1/2 then to full F note, then
slow release}
----------------------------------------------------------------------------------
----------------------------------------------------------------------------------
----------------------------------------------------------------------------------
-2-0-2~-0h2p0----2-0-2--4-5-4--4-5-4p2p0--2-0-2~-0h2p0----2-0-2--4-5-4--4-5-4p2p0-
----------------------------------------------------------------------------------
----------------------------------------------------------------------------------
-------------------------------------------------------10-12^(14-14-14`12)--
---------------------------------------------------9-12---------------------
-----------7h9-7-9-9^(11-11-11`9)-11\7-7/9-9~--9/11-------------------------
----5h7-7h9-----------------------------------------------------------------
-5h7------------------------------------------------------------------------
----------------------------------------------------------------------------

-12p10-------------------------------------------------------------------
------12p10-10-----------------------------------------------------------
--------------9p7-7-7-------------------------7--7-9-9^(11-11-11-11-`9)--
---------------------9p7-5-7p5---5h7----5h7/9--9-------------------------
------------------------------7-----5h7----------------------------------
-------------------------------------------------------------------------

                                     ---------------------------------------
                                     ---------------------------------------
                                     ---------7--9-9-9^(11-11-11'9}-9p7-7-9-
                                     ----------9-----------------------9----
                                     ---------------------------------------
                                     ---------------------------------------

-----------------------------------------------------------------------------
-----------------------------------------------------------------------------
-----------------------------------------------------------------------------
-7p5-7p5-7h9-9-7-7^(9-9-9`7)-7p5-7p5h7-5h7p5-7p5-7p5-7p5-5-------------------
----------------------------------------------------------7-7p5-7-5h7p5-7p5-7
-----------------------------------------------------------------------------

Guitar 1 & 2
----------------------------------------------------------------------------------
----------------------------------------------------------------------------------
----------------------------------------------------------------------------------
-2-0-2~-0h2p0----2-0-2--4-5-4--4-5-4p2p0--2-0-2~-0h2p0----2-0-2--4-5-4--4-5-4p2p0-
----------------------------------------------------------------------------------
----------------------------------------------------------------------------------

------------------------------------------------------------------------------
------------------------------------------------------------------------------
------------------------------------------------------------------------------
-2-0-2~-0h2p0----2-0-2--4-5-4--4-5-4p0--2-0-2~-0h2p0----2-0-2--4-5-4--4-5-4p0-
------------------------------------------------------------------------------
------------------------------------------------------------------------------



B D E
variations - click chord images
Transpose chords:
Tuning:
Cool service:
View: Size:
A  A  A
Rating:
Layout:
  • Currently 2.9/5 Stars.
  • 1
  • 2
  • 3
  • 4
  • 5
 
Accuracy:
  • Currently 3.2/5 Stars.
  • 1
  • 2
  • 3
  • 4
  • 5
 
click stars to rate
Chordie recommends:
Learn to play guitar with video-based, online guitar lessons at JamPlay.com
Songbook:
Login to add this song to your songbook
Support the artist
Preview/buy this song
MSN Music
Why this non-profit ad?

 
login to add comments/video/corrections