eToCache5 = ""; ?> Paranoid by Black Sabbath - guitar chords, guitar tabs and lyrics - chordie

Paranoid

Black Sabbath


 ##
 #                     From The Headless Cross Tab Page                     #

Start Date:
Finished: 11:19 AM 10/12/97
Updated: 08:09 10/13/00
Updated again on: 08:04 3/19/01
Black Sabbath - Paranoid
From Black Sabbath's "Paranoid" Album 1970
Tuning Info: Standard (440Hz) Tuning, Allegro, 164 beast/min, 4/4 count
NOTE: Lyrics written here don't align with music, due to space constraints.
------------------------------------------------------------------------------
------------------------------------------------------------------------------
------------------------------------------------------------------------------
------------------------12h14-----12----------------------------12h14-----12--
-12h14-12h14-12h14-12h14-----12h14--14---12h14-12h14-12h14-12h14-----12h14--14
-12----12----12--------------------------12----12----12-----------------------
------------------------------------------------------------------------------
------------------------------------------------------------------------------
------------------------------------------------------------------------------
------------------------12h14-----12----------------------------12h14-----12--
-12h14-12h14-12h14-12h14-----12h14--14---12h14-12h14-12h14-12h14-----12h14--14
-12----12----12--------------------------12----12----12-----------------------

 EEEEEEEEEEEEEEEEDDDDDDDDD
-----------------------------------------------------------------------------
-----------------------------------------------------------------------------
-----------------------------------------------------------------------------
-----------------------------------------------------------------------------
-14-14-14-14-14-14-14-14-14-14-14-14-144-14-14-14-12-12-12-12-12-12-12-12-12-
-12-12-12-12-12-12-12-12-12-12-12-12-122-12-12-12-10-10-10-10-10-10-10-10-10-

Fin - ished with my wo - man 'cause she couldn't help me
 GDEGsus2
-------------------
--------------12---
--------------12---
-12-----------12---
-10--12--14--------
-----10--12--------

with my mind
 EEEEEEEEEEEEEEEEDDDDDDDDD
-----------------------------------------------------------------------------
-----------------------------------------------------------------------------
-----------------------------------------------------------------------------
-----------------------------------------------------------------------------
-14-14-14-14-14-14-14-14-14-14-14-14-144-14-14-14-12-12-12-12-12-12-12-12-12-
-12-12-12-12-12-12-12-12-12-12-12-12-122-12-12-12-10-10-10-10-10-10-10-10-10-

People think I'm in - sane be - cause I am frowning
 GDE
--------------
--------------
--------------
-12-----------
-10--12--14---
-----10--12---

all the time
 EECDEEEEEEEEEEEEEEEE
-------------------------------------------------------------------
-------------------------------------------------------------------
-------------------------------------------------------------------
-------------------------------------------------------------------
-14-14--10--12--14-14-14-14-14-14-14-144-14-14-14-14-14-14-14-14---
-12-12---8--10--12-12-12-12-12-12-12-122-12-12-12-12-12-12-12-12---

 EECDEEEEEEEEEEEEEEEE
-------------------------------------------------------------------
-------------------------------------------------------------------
-------------------------------------------------------------------
-------------------------------------------------------------------
-14-14--10--12--14-14-14-14-14-14-14-144-14-14-14-14-14-14-14-14---
-12-12---8--10--12-12-12-12-12-12-12-122-12-12-12-12-12-12-12-12---

 EEEEEEEEEEEEEEEEDDDDDDDDD
-----------------------------------------------------------------------------
-----------------------------------------------------------------------------
-----------------------------------------------------------------------------
-----------------------------------------------------------------------------
-14-14-14-14-14-14-14-14-14-14-14-14-144-14-14-14-12-12-12-12-12-12-12-12-12-
-12-12-12-12-12-12-12-12-12-12-12-12-122-12-12-12-10-10-10-10-10-10-10-10-10-

All day long I think of things But nothing seems to
 GDEGsus2
-------------------
--------------12---
--------------12---
-12-----------12---
-10--12--14--------
-----10--12--------

sat is fy
 EEEEEEEEEEEEEEEEDDDDDDDDD
-----------------------------------------------------------------------------
-----------------------------------------------------------------------------
-----------------------------------------------------------------------------
-----------------------------------------------------------------------------
-14-14-14-14-14-14-14-14-14-14-14-14-144-14-14-14-12-12-12-12-12-12-12-12-12-
-12-12-12-12-12-12-12-12-12-12-12-12-122-12-12-12-10-10-10-10-10-10-10-10-10-

Think I'll lose my mind if I don't find something to
 GDE
--------------
--------------
--------------
-12-----------
-10--12--14---
-----10--12---

gr at ify
BRIDGE
 EEEDD)/ED
-------------------------------------------------------
-------------------------------------------------------
-------------------------------------------------------
-------------------------------------------------------
-14-14--------14-12-------------(12)/144-------12------
-12-12--------12-10-------------(10)/122-------10------

Can you help me Occupy my brain Oh yea
 EEEEEEEEEEEEEEEEDDDDDDDDD
-----------------------------------------------------------------------------
-----------------------------------------------------------------------------
-----------------------------------------------------------------------------
-----------------------------------------------------------------------------
-14-14-14-14-14-14-14-14-14-14-14-14-144-14-14-14-12-12-12-12-12-12-12-12-12-
-12-12-12-12-12-12-12-12-12-12-12-12-122-12-12-12-10-10-10-10-10-10-10-10-10-

 GDEGsus2
-------------------
--------------12---
--------------12---
-12-----------12---
-10--12--14--------
-----10--12--------

 EEEEEEEEEEEEEEEEDDDDDDDDD
-----------------------------------------------------------------------------
-----------------------------------------------------------------------------
-----------------------------------------------------------------------------
-----------------------------------------------------------------------------
-14-14-14-14-14-14-14-14-14-14-14-14-144-14-14-14-12-12-12-12-12-12-12-12-12-
-12-12-12-12-12-12-12-12-12-12-12-12-122-12-12-12-10-10-10-10-10-10-10-10-10-

 GDEGsus2
-------------------
--------------12---
--------------12---
-12-----------12---
-10--12--14--------
-----10--12--------

 EEEEEEEEEEEEEEEEDDDDDDDDD
-----------------------------------------------------------------------------
-----------------------------------------------------------------------------
-----------------------------------------------------------------------------
-----------------------------------------------------------------------------
-14-14-14-14-14-14-14-14-14-14-14-14-144-14-14-14-12-12-12-12-12-12-12-12-12-
-12-12-12-12-12-12-12-12-12-12-12-12-122-12-12-12-10-10-10-10-10-10-10-10-10-

I need some - one to show me the things in life that
 GDEGsus2
-------------------
--------------12---
--------------12---
-12-----------12---
-10--12--14--------
-----10--12--------

I can't find
 EEEEEEEEEEEEEEEEDDDDDDDDD
-----------------------------------------------------------------------------
-----------------------------------------------------------------------------
-----------------------------------------------------------------------------
-----------------------------------------------------------------------------
-14-14-14-14-14-14-14-14-14-14-14-14-144-14-14-14-12-12-12-12-12-12-12-12-12-
-12-12-12-12-12-12-12-12-12-12-12-12-122-12-12-12-10-10-10-10-10-10-10-10-10-

I can't see the things that make true happiness I
 GDE
--------------
--------------
--------------
-12-----------
-10--12--14---
-----10--12---

must be blind
---------------------------------------------------
---------------------------------------------------
--9^11`9-7-9~~-7-9-9p7-----------------------------
-----------------------9\7-5h7-5h7-------5---------
----------------------------------5h7~----7-7~-----
---------------------------------------------------

(Note: Guitar 2 with heavy distortion)
 EEEEEEEEEEEEEEEEDDDDDDDDD
-----------------------------------------------------------------------------
-----------------------------------------------------------------------------
-----------------------------------------------------------------------------
-----------------------------------------------------------------------------
-14-14-14-14-14-14-14-14-14-14-14-14-144-14-14-14-12-12-12-12-12-12-12-12-12-
-12-12-12-12-12-12-12-12-12-12-12-12-122-12-12-12-10-10-10-10-10-10-10-10-10-

(Guitar 3)
 GDE
--------------
--------------
-12-----------
-12-----------
-10--12--14---
-----10--12---

(Guitar 3)
----------------------------------------------------------------------------
-------------------8-10-10^(12`10)-8-100^(12`10)-8-10^(12`10)-8-10-8--------
-----------7-9--7/9---------------------------------------------------9-9-9-
-----5h7/9------------------------------------------------------------------
-5h7------------------------------------------------------------------------
----------------------------------------------------------------------------

 EEEEEEEEEEEEEEEEDDDDDDDDD
-----------------------------------------------------------------------------
-----------------------------------------------------------------------------
-----------------------------------------------------------------------------
-----------------------------------------------------------------------------
-14-14-14-14-14-14-14-14-14-14-14-14-144-14-14-14-12-12-12-12-12-12-12-12-12-
-12-12-12-12-12-12-12-12-12-12-12-12-122-12-12-12-10-10-10-10-10-10-10-10-10-

(Guitar 3)
 GDE
--------------
--------------
--------------
-12-----------
-10--12--14---
-----10--12---

(Guitar 3)
-------------12--------------------------------15^(17)-15^(17)-15^(17`15)-15p12---
-----------12--15^(17`15)-(12)-15^(17)--15p12----------------------------------15-
-7h9-9-9/14----------------------------------14-----------------------------------
----------------------------------------------------------------------------------
----------------------------------------------------------------------------------
----------------------------------------------------------------------------------

 EEEEEEEEEEEEEEEEDDDDDDDDD
-----------------------------------------------------------------------------
-----------------------------------------------------------------------------
-----------------------------------------------------------------------------
-----------------------------------------------------------------------------
-14-14-14-14-14-14-14-14-14-14-14-14-144-14-14-14-12-12-12-12-12-12-12-12-12-
-12-12-12-12-12-12-12-12-12-12-12-12-122-12-12-12-10-10-10-10-10-10-10-10-10-

(Guitar 3)
 GDE
--------------
--------------
--------------
--------------
-10--12--14---
-----10--12---

(Guitar 3)
-15p12-----15p12----------------------112-------------------------------------
------15p12-----15^(17)-15p12-------12---15p12--------------------------------
-----------------------------14^(16)----------14--14p12--12-14^(16`14)-14p12--
-------------------------------------------------------14---------------------
------------------------------------------------------------------------------
------------------------------------------------------------------------------

 EEEEEEEEEEEEEEEEDDDDDDDDD
-----------------------------------------------------------------------------
-----------------------------------------------------------------------------
-----------------------------------------------------------------------------
-----------------------------------------------------------------------------
-14-14-14-14-14-14-14-14-14-14-14-14-144-14-14-14-12-12-12-12-12-12-12-12-12-
-12-12-12-12-12-12-12-12-12-12-12-12-122-12-12-12-10-10-10-10-10-10-10-10-10-

(Guitar 3)
 GDE
--------------
--------------
--------------
-12-----------
-10--12--14---
-----10--12---

(Guitar 3)
------------------------------------------------------------------------------------
------------------------------------------------------------------------------------
-14^(16)-12h14p12--12-----------------------------------------12--------------------
-----------------14---14-14p12--12--------------------12-12h14--14-12-14-12-14\(10)-
------------------------------14---12-110-12p10--12h14------------------------------
-----------------------------------------------12-----------------------------------

 EEEEEEEEEEEEEEEEDDDDDDDDD
-----------------------------------------------------------------------------
-----------------------------------------------------------------------------
-----------------------------------------------------------------------------
-----------------------------------------------------------------------------
-14-14-14-14-14-14-14-14-14-14-14-14-144-14-14-14-12-12-12-12-12-12-12-12-12-
-12-12-12-12-12-12-12-12-12-12-12-12-122-12-12-12-10-10-10-10-10-10-10-10-10-

 GDEGsus2
-------------------
--------------12---
--------------12---
-12-----------12---
-10--12--14--------
-----10--12--------

 EEEEEEEEEEEEEEEEDDDDDDDDD
-----------------------------------------------------------------------------
-----------------------------------------------------------------------------
-----------------------------------------------------------------------------
-----------------------------------------------------------------------------
-14-14-14-14-14-14-14-14-14-14-14-14-144-14-14-14-12-12-12-12-12-12-12-12-12-
-12-12-12-12-12-12-12-12-12-12-12-12-122-12-12-12-10-10-10-10-10-10-10-10-10-

 GDEGsus2
-------------------
--------------12---
--------------12---
-12-----------12---
-10--12--14--------
-----10--12--------

 EEEEEEEEEEEEEEEEDDDDDDDDD
-----------------------------------------------------------------------------
-----------------------------------------------------------------------------
-----------------------------------------------------------------------------
-----------------------------------------------------------------------------
-14-14-14-14-14-14-14-14-14-14-14-14-144-14-14-14-12-12-12-12-12-12-12-12-12-
-12-12-12-12-12-12-12-12-12-12-12-12-122-12-12-12-10-10-10-10-10-10-10-10-10-

Make a joke and I will sigh and you will laugh and
 GDEGsus2
-------------------
--------------12---
--------------12---
-12-----------12---
-10--12--14--------
-----10--12--------

I will cry
 EEEEEEEEEEEEEEEEDDDDDDDDD
-----------------------------------------------------------------------------
-----------------------------------------------------------------------------
-----------------------------------------------------------------------------
-----------------------------------------------------------------------------
-14-14-14-14-14-14-14-14-14-14-14-14-144-14-14-14-12-12-12-12-12-12-12-12-12-
-12-12-12-12-12-12-12-12-12-12-12-12-122-12-12-12-10-10-10-10-10-10-10-10-10-

Happ iness I can not feel and love to me is
 GDE
--------------
--------------
--------------
-12-----------
-10--12--14---
-----10--12---

so un real
 EECDEEEEEEEEEEEEEEEE
-------------------------------------------------------------------
-------------------------------------------------------------------
-------------------------------------------------------------------
-------------------------------------------------------------------
-14-14--10--12--14-14-14-14-14-14-14-144-14-14-14-14-14-14-14-14---
-12-12--8---10--12-12-12-12-12-12-12-122-12-12-12-12-12-12-12-12---

-------------------------------------------------------------------
-------------------------------------------------------------------
-------------------------------------------------------------------
-------------------------------------------------------------------
----------------14-------------------------------------------------
----------------12-(Let ring)--------------------------------------

(Guitar 2)
 EECDEEEEEEEEEEEEEEEE
-------------------------------------------------------------------
-------------------------------------------------------------------
-------------------------------------------------------------------
-------------------------------------------------------------------
-14-14--10--12--14-14-14-14-14-14-14-144-14-14-14-14-14-14-14-14---
-12-12--8---10--12-12-12-12-12-12-12-122-12-12-12-12-12-12-12-12---

 EEEEEEEEEEEEEEEEDDDDDDDDD
-----------------------------------------------------------------------------
-----------------------------------------------------------------------------
-----------------------------------------------------------------------------
-----------------------------------------------------------------------------
-14-14-14-14-14-14-14-14-14-14-14-14-144-14-14-14-12-12-12-12-12-12-12-12-12-
-12-12-12-12-12-12-12-12-12-12-12-12-122-12-12-12-10-10-10-10-10-10-10-10-10-

And so as you hear these words telling you now
 GDEGsus2
----------------
-------------12-
-------------12-
-12----------12-
-10--12--14-----
-----10--12-----

of my state
 EEEEEEEEEEEEEEEEDDDDDDDDD
-----------------------------------------------------------------------------
-----------------------------------------------------------------------------
-----------------------------------------------------------------------------
-----------------------------------------------------------------------------
-14-14-14-14-14-14-14-14-14-14-14-14-144-14-14-14-12-12-12-12-12-12-12-12-12-
-12-12-12-12-12-12-12-12-12-12-12-12-122-12-12-12-10-10-10-10-10-10-10-10-10-

I tell you to enjoy life I wish I could but
 GDEGsus2
----------------
-------------12-
-------------12-
-12----------12-
-10--12--14-----
-----10--12-----

it's too late
 EEEEEEEEEEEEEEEEDDDDDDDDD
-----------------------------------------------------------------------------
-----------------------------------------------------------------------------
-----------------------------------------------------------------------------
-----------------------------------------------------------------------------
-14-14-14-14-14-14-14-14-14-14-14-14-144-14-14-14-12-12-12-12-12-12-12-12-12-
-12-12-12-12-12-12-12-12-12-12-12-12-122-12-12-12-10-10-10-10-10-10-10-10-10-

 GDEGsus2
----------------
-------------12-
-------------12-
-12----------12-
-10--12--14-----
-----10--12-----

 EEEEEEEEEEEEEEEEDDDDDDDDD
-----------------------------------------------------------------------------
-----------------------------------------------------------------------------
-----------------------------------------------------------------------------
-----------------------------------------------------------------------------
-14-14-14-14-14-14-14-14-14-14-14-14-144-14-14-14-12-12-12-12-12-12-12-12-12-
-12-12-12-12-12-12-12-12-12-12-12-12-122-12-12-12-10-10-10-10-10-10-10-10-10-

 GE
------------------
------------------
------------------
-12---------------
-10----------14---
-----10^(11)/12---



C D E G Gsus2
variations - click chord images
Transpose chords:
Tuning:
Cool service:
View: Size:
A  A  A
Rating:
Layout:
  • Currently 1.8/5 Stars.
  • 1
  • 2
  • 3
  • 4
  • 5
 
Accuracy:
  • Currently 3.3/5 Stars.
  • 1
  • 2
  • 3
  • 4
  • 5
 
click stars to rate
Chordie recommends:
Learn to play songs at Jamplay.com with video guitar lessons
Songbook:
Login to add this song to your songbook
Support the artist
Preview/buy this song
MSN Music
Why this non-profit ad?

 
login to add comments/video/corrections