eToCache5 = ""; ?> Planet Caravan by Black Sabbath - guitar chords, guitar tabs and lyrics - chordie

Planet Caravan

Black Sabbath


 ##
 #                     From The Headless Cross Tab Page                     #

Originally Started 9/15/97
Updated: 14:00 10/22/00 (Took a long time to do this one, huh!?)
Black Sabbath - Planet Caravan
From Black Sabbath's "Paranoid" Album 1970
Tuning Info: Standard Tuning, (440Hz), 74 Beats/min., 4/4 count
(mp)
Em7(no 5) D6/9 Em7(no 5) D6/9
-----0-0--------------0-0-------------
-----0-0-------0--0---0-0-------0--0--
-----0-0------0--0----0-0------0--0---
-----5-5-----4--4-----5-5-----4--4----
---7-7-7--7-5--5----7-7-7--7-5--5-----
-0----------------0-------------------

Em7(no 5) D6/9 Em7(no 5) D6/9 Em7(no 5) D6/9 Em7(no 5) D6/9
-----0-0--------------0-0--------------0-0-------------0-0--------------
-----0-0-------0--0---0-0-------0--0---0-0-------0--0--0-0-------0--0---
-----0-0------0--0----0-0------0--0----0-0------0--0---0-0------0--0----
-----5-5-----4--4-----5-5-----4--4-----5-5-----4--4----5-5-----4--4-----
---7-7-7--7-5--5----7-7-7--7-5--5----7-7-7--7-5--5---7-7-7--7-5--5------
-0----------------0----------------0---------------0--------------------

We sail through endless skies. Stars shine like eyes. The black night sighs
Em7(no 5) D6/9 Em7(no 5) D6/9 Em7(no 5) D6/9 Em7(no 5) D6/9
-----0-0--------------0-0--------------0-0-------------0-0--------------
-----0-0-------0--0---0-0-------0--0---0-0-------0--0--0-0-------0--0---
-----0-0------0--0----0-0------0--0----0-0------0--0---0-0------0--0----
-----5-5-----4--4-----5-5-----4--4-----5-5-----4--4----5-5-----4--4-----
---7-7-7--7-5--5----7-7-7--7-5--5----7-7-7--7-5--5---7-7-7--7-5--5------
-0----------------0----------------0---------------0--------------------

The moon in silver dreams falls down in tears Light of the night
Em7(no 5) D6/9 Em7(no 5) D6/9 Em7(no 5) D6/9 Em7(no 5) D6/9
-----0-0--------------0-0--------------0-0-------------0-0--------------
-----0-0-------0--0---0-0-------0--0---0-0-------0--0--0-0-------0--0---
-----0-0------0--0----0-0------0--0----0-0------0--0---0-0------0--0----
-----5-5-----4--4-----5-5-----4--4-----5-5-----4--4----5-5-----4--4-----
---7-7-7--7-5--5----7-7-7--7-5--5----7-7-7--7-5--5---7-7-7--7-5--5------
-0----------------0----------------0---------------0--------------------

The earth a purple blaze of saphire haze in orbit always
Em7(no 5) D6/9 Em7(no 5) D6/9 Em7(no 5) D6/9 Em7(no 5) D6/9
-----0-0--------------0-0--------------0-0-------------0-0--------------
-----0-0-------0--0---0-0-------0--0---0-0-------0--0--0-0-------0--0---
-----0-0------0--0----0-0------0--0----0-0------0--0---0-0------0--0----
-----5-5-----4--4-----5-5-----4--4-----5-5-----4--4----5-5-----4--4-----
---7-7-7--7-5--5----7-7-7--7-5--5----7-7-7--7-5--5---7-7-7--7-5--5------
-0----------------0----------------0---------------0--------------------

Em7(no 5) D6/9 Em7(no 5) D6/9 Em7(no 5) D6/9 Em7(no 5) D6/9
-----0-0--------------0-0--------------0-0-------------0-0--------------
-----0-0-------0--0---0-0-------0--0---0-0-------0--0--0-0-------0--0---
-----0-0------0--0----0-0------0--0----0-0------0--0---0-0------0--0----
-----5-5-----4--4-----5-5-----4--4-----5-5-----4--4----5-5-----4--4-----
---7-7-7--7-5--5----7-7-7--7-5--5----7-7-7--7-5--5---7-7-7--7-5--5------
-0----------------0----------------0---------------0--------------------

While down below, the trees begging for breeze. Silver starlight
Breaks down the night
Em7(no 5) D6/9 Em7(no 5) D6/9 Em7(no 5) D6/9 Em7(no 5) D6/9
-----0-0--------------0-0--------------0-0-------------0-0--------------
-----0-0-------0--0---0-0-------0--0---0-0-------0--0--0-0-------0--0---
-----0-0------0--0----0-0------0--0----0-0------0--0---0-0------0--0----
-----5-5-----4--4-----5-5-----4--4-----5-5-----4--4----5-5-----4--4-----
---7-7-7--7-5--5----7-7-7--7-5--5----7-7-7--7-5--5---7-7-7--7-5--5------
-0----------------0----------------0---------------0--------------------

And so we pass on by the crimson eyes of great God Mars
Em7(no 5) D6/9 Em7(no 5) D6/9 Em7(no 5) D6/9 Em7(no 5) D6/9
-----0-0--------------0-0--------------0-0-------------0-0--------------
-----0-0-------0--0---0-0-------0--0---0-0-------0--0--0-0-------0--0---
-----0-0------0--0----0-0------0--0----0-0------0--0---0-0------0--0----
-----5-5-----4--4-----5-5-----4--4-----5-5-----4--4----5-5-----4--4-----
---7-7-7--7-5--5----7-7-7--7-5--5----7-7-7--7-5--5---7-7-7--7-5--5------
-0----------------0----------------0---------------0--------------------

as we travel the universe
------------------------------------------------------------
------------------------------------------------------------
------------------------------------------------------------
------------------------------------------------------------
-9--------------10-12--13p12p10-12--10--10----------10------
--10/12-(12)--12----------------------12----12-10-12--------
------------------------------------------------------------
------------------------------------------------------------
------------------------------------------------------------
------------------------------------------------------------
---10--13p12--13p12p10-13-13-13-12-12--12-10-10--10---------
-12-------------------------------------------------12------
-----------------------------------------------------------------------------------------
-----------------------------------------------------------------------------------------
--------------------------9-11-12-11--9-11p9-----------9-11-12-11--11p9------------------
----------------10-9-11-12------------------12--9-11-12----------12----11h12p11-9-11-11--
-11-12-11-9-11p9-------------------------------------------------------------------------
-----------------------------------------------------------------------------------------
--------------------------------------------------------------------------------------------
-----------------------------------------10--------------------------------------10---------
-----------------9-12-11h12p11-------9h11--11h12p11-11-11h12p11-9-9-------9-11-12--11h12p11-
----------9h11h12-------------11-9h12------------------------------9-11-12------------------
---9-10-12----------------------------------------------------------------------------------
-12-----------------------------------------------------------------------------------------
------------------------------------------------------------------
------------------------------------------10----------------------
--------------------------------------9-12--11---11---------------
-11h12p11-9-11h12p11-11h12p11--9h11h12---------12---9-12-12\(9)---
------------------------------------------------------------------
------------------------------------------------------------------
---------------------------------------------------------------------------
-----------------------------11-10-----------------------10----------------
----------------------9h11h12-------11h12p11-9-------9-11--9-10p9----------
---------------9h11h12------------------------9h11h12------------11-11-----
--------9h11h12------------------------------------------------------------
-9h10h12-------------------------------------------------------------------

 DGsus2DGsus2
--2--------------------3-------------------2--------------------3----------
--3--------------------3-------------------3--------------------3----------
--2--------------------2-------------------2--------------------2----------
---------------------------------------------------------------------------
---------------------------------------------------------------------------
---------------------------------------------------------------------------

(Piano transcribed for Guitar 2..this is where I first hear it)
------------------------------------------------------------------------
-------------------------------------10h11p11p9--9-9--------------------
-----------------------------9-11/12~---------------11p9-----9\(5)------
-11h12p10--11h12p11-11--11h12---------------------------11-11-----------
------------------------------------------------------------------------
------------------------------------------------------------------------

(Guitar 1)
 DGsus2DGsus2
--2--------------------3-------------------2--------------------3----------
--3--------------------3-------------------3--------------------3----------
--2--------------------2-------------------2--------------------2----------
---------------------------------------------------------------------------
---------------------------------------------------------------------------
---------------------------------------------------------------------------

(Piano transcribed for Guitar 2)
---------------------------------------------------------------------------
-9h10p9--------------------------------------------------------------------
-------9h10p9--------------------------------------------------------------
-------------9h10p9--------------------------------------------------------
-------------------9h10p9---------------9h10p9-9--------10-12h13p12-10-----
-------------------------12--10-10-12-12--------10-10-12--------------12---

(Guitar 1)
 DGsus2DGsus2
--2--------------------3-------------------2--------------------3----------
--3--------------------3-------------------3--------------------3----------
--2--------------------2-------------------2--------------------2----------
---------------------------------------------------------------------------
---------------------------------------------------------------------------
---------------------------------------------------------------------------

(Piano transcribed for Guitar 2)
---------------------------------------------------------------------------
---------------------------------------------------------------------------
---------------------------------------------------------------------------
---------------------------------------------------------------------------
---10-12-13p12-10-12h13-12h13p12p10--------10-12h13p12--12h13p12-12--------
-12--------------------------------12-12-12------------------------12/(18)-

(Guitar 1)
 DGsus2DGsus2
--2--------------------3-------------------2--------------------3----------
--3--------------------3-------------------3--------------------3----------
--2--------------------2-------------------2--------------------2----------
---------------------------------------------------------------------------
---------------------------------------------------------------------------
---------------------------------------------------------------------------

(Piano transcribed for Guitar 2)
-----------------------------------------------------------------------
---------------------------------8-8--10-8h10p8------------------------
-11--------------------------9-11--------------11-11h12p11-------------
---12-11--11h12p11-11-9h11h12-----------------------------9-11-11------
-----------------------------------------------------------------------
-----------------------------------------------------------------------

(Guitar 1)
 DGsus2DGsus2
--2--------------------3-------------------2--------------------3----------
--3--------------------3-------------------3--------------------3----------
--2--------------------2-------------------2--------------------2----------
---------------------------------------------------------------------------
---------------------------------------------------------------------------
---------------------------------------------------------------------------

(Piano transcribed for Guitar 2)
-----12-14-15-14p12p10----------------------------------------------------------------------
---12-----------------12-10-12p10---10h12p10------------------------------------------------
--9------------------------------11---------12p11-11-11-------------------------------------
-9-----------------------------------------------------13-11h12p11--------------------------
------------------------------------------------------------------11-12h13p12--11-11h12p11--
--------------------------------------------------------------------------------------------

(Guitar 1)
 DGsus2DGsus2
--2--------------------3-------------------2--------------------3----------
--3--------------------3-------------------3--------------------3----------
--2--------------------2-------------------2--------------------2----------
---------------------------------------------------------------------------
---------------------------------------------------------------------------
---------------------------------------------------------------------------

(Piano transcribed for Guitar 2)
----------------------------------------------------------------14-12-14--
--------------------------------------------11-10-------------10----------
-------------11-12-11-------------9h11-9-9-------11h12p11-9h11------------
---------------------12p11p9h11h12----------------------------------------
--------------------------------------------------------------------------
-10-10h12-12--------------------------------------------------------------

(Guitar 1)
 DGsus2DGsus2
--2--------------------3-------------------2--------------------3----------
--3--------------------3-------------------3--------------------3----------
--2--------------------2-------------------2--------------------2----------
---------------------------------------------------------------------------
---------------------------------------------------------------------------
---------------------------------------------------------------------------

(Piano transcribed for Guitar 2)
-12h14p12\10--12-12--14h15-14\10-10h12\(5)-------------------------------------------
------------10----------------------------10h11p10-10--------------10-11-10h11p10----
-----------------------------------------------------12-12--9h11h12--------------12--
-------------------------------------------------------------------------------------
-------------------------------------------------------------------------------------
-------------------------------------------------------------------------------------

(Guitar 1)
 DGsus2DGsus2
--2--------------------3-------------------2--------------------3----------
--3--------------------3-------------------3--------------------3----------
--2--------------------2-------------------2--------------------2----------
---------------------------------------------------------------------------
---------------------------------------------------------------------------
---------------------------------------------------------------------------

(Piano transcribed for Guitar 2)
-----------------------------------------------------------
--------------9-11-10h11p10--------------------------------
---11----11-12-------------11h12p11------------------------
-12----12--------------------------12-11-12----------------
-------------------------------------------12-10-12-12-12--
-----------------------------------------------------------

(Guitar 1 - begin coda)
 DGsus2DGsus2
--2--------------------3-------------------2--------------------3----------
--3--------------------3-------------------3--------------------3----------
--2--------------------2-------------------2--------------------2----------
---------------------------------------------------------------------------
---------------------------------------------------------------------------
---------------------------------------------------------------------------

(Piano transcribed for Guitar 2)
----------------------------------------------------------------------------------
----------------------------------------------------------------------------------
------12-12p11--------------------------------------------------------------------
-12-14--------12-11-12--14-14-----------------------------------------------------
-----------------------------------------10p9--9h10p9--9h10p9-9h10p9--------------
--------------------------------------------------------------------10--10/12-12--

(Guitar 1)
 DGsus2DGsus2
--2--------------------3-------------------2--------------------3----------
--3--------------------3-------------------3--------------------3----------
--2--------------------2-------------------2--------------------2----------
---------------------------------------------------------------------------
---------------------------------------------------------------------------
---------------------------------------------------------------------------

(Piano transcribed for Guitar 2)
--------------------------------------------------------
--------------------------------------------------------
--------------------------11--9h11--9h11--9h11/12-------
-------------------------------------------------12-----
-----11-12-9h10p9--9h10p9-------------------------------
-12-----------------------------------------------------

(Guitar 1)
 DGsus2D
--2--------------------3-------------------2------------
--3--------------------3-------------------3------------
--2--------------------2-------------------2------------
--------------------------------------------------------
--------------------------------------------------------
--------------------------------------------------------

(Piano transcribed for Guitar 2)


D Gsus2
variations - click chord images
Transpose chords:
Tuning:
Cool service:
View: Size:
A  A  A
Rating:
Layout:
  • Currently 3.4/5 Stars.
  • 1
  • 2
  • 3
  • 4
  • 5
 
Accuracy:
  • Currently 3.4/5 Stars.
  • 1
  • 2
  • 3
  • 4
  • 5
 
click stars to rate
Chordie recommends:
Learn to play guitar with video-based, online guitar lessons at JamPlay.com
Songbook:
Login to add this song to your songbook
Support the artist
Preview/buy this song
MSN Music
Why this non-profit ad?

 
login to add comments/video/corrections