Guitar Tabs, Chords and Lyrics


In Memory    Black Sabbath



In Memory...
|--------0-----------------------------5-----------------------------
|----------0-----6-------5-----------5---5-6-----------1-------------
|------5-----5-----5-------5-------7---------7-------0---------------
|----7---------7-----7-------7---0-------------0---2---------0-------
|--0-------------------0-------0-----------------3---------2-------0-
|--------------------------------------------------------3-----0-3---
|--------------------------------------------------------------------
|--------------------------------------------------------------------
|------------------------------7----------------5--------------------
|-7----------------------------7----------------5-------5------------
|-7----------------------------5----------------3-------5------2-5-7-


Important: The song above is NOT stored on the Chordie server. The original song is hosted at www.xguitar.com. Chordie works as a search engine and provides on-the-fly formatting. Chordie does not index songs against artists'/composers' will. To remove this song please click here.

This song is displayed as text-only. Transposing and tuning is only available for chordpro-songs.

Login - add to songbook

Rating click stars to rate

Layout
Accuracy

SHARE PAGE  




You need to log in to post comments