Guitar Tabs, Chords and Lyrics


Anno Mundi (The Vision)    Black Sabbath











Started:
Finished: 7/17/97
Updated: 7:19 AM 6/30/98

Black Sabbath - Anno Mundi

From Black Sabbath's "Tyr" CD, 1990

Tuning Info: Allegro, 130 beats/min.

NOTE: Lyrics written may not coenside with the tab written!

                                                
----0---------0-1---0--------------0----------0-1---0-------------
---3-3-------3-----3-3------------3-3--------3-----3-3------------
--2---------2-----2--------------2----------2-----2--------3-2-0--
-0----(0)-2/3----0----------0h3p0---(0)-2/3-----0----3-2-0--------
--------------------(0)3-2----------------------------------------
------------------------------------------------------------------                            

----0---------0-1---0--------------0----------0-1---0-------------
---3-3-------3-----3-3------------3-3--------3-----3-3------------
--2---------2-----2--------------2----------2-----2--------3-2-0--
-0----(0)-2/3----0----------0h3p0---(0)-2/3-----0----3-2-0--------
--------------------(0)3-2----------------------------------------
------------------------------------------------------------------
Spiritus Sanctus Anno Anno Mundi  Spiritus Sanctus Anno Anno Mundi

----0---------0-1---0--------------0----------0-1---0-------------
---3-3-------3-----3-3------------3-3--------3-----3-3------------
--2---------2-----2--------------2----------2-----2--------3-2-0--
-0----(0)-2/3----0----------0h3p0---(0)-2/3-----0----3-2-0--------
--------------------(0)3-2----------------------------------------
------------------------------------------------------------------
Can you see me, are you near me? Can you hear me crying out for life?

----0---------0-1---0--------------0----------0-1---0-------------
---3-3-------3-----3-3------------3-3--------3-----3-3------------
--2---------2-----2--------------2----------2-----2--------3-2-0--
-0----(0)-2/3----0----------0h3p0---(0)-2/3-----0----3-2-0--------
--------------------(0)3-2----------------------------------------
------------------------------------------------------------------
Can you tell me, where's the glory? Ride the days and sail the nights.

----0---------0-1---0--------------0----------0-1---0-------------
---3-3-------3-----3-3------------3-3--------3-----3-3------------
--2---------2-----2--------------2----------2-----2--------3-2-0--
-0----(0)-2/3----0----------0h3p0---(0)-2/3-----0----3-2-0--------
--------------------(0)3-2----------------------------------------
------------------------------------------------------------------
When it's over, you'll find the answer, running in the whispering rain

----0---------0-1---0--------------0----------0-1---0-------------
---3-3-------3-----3-3------------3-3--------3-----3-3------------
--2---------2-----2--------------2----------2-----2--------3-2-0--
-0----(0)-2/3----0----------0h3p0---(0)-2/3-----0----3-2-0--------
--------------------(0)3-2----------------------------------------
------------------------------------------------------------------
Anno Mundi? Can you wonder?  Truth or thunder, life or blame.

----------------------------------------------------
----------------------------------------------------
----------------------------------------------------
----------------------------------------------------
-1----------------(0)1--1----------------1----------
--3-1-333-(0)11-33----3--3-1-333-(0)1p0-1--3-0-1-3--
#cutline#

----------------------------------------------------
----------------------------------------------------
----------------------------------------------------
----------------------------------------------------
-1----------------(0)1--1----------------1----------
--3-1-333-(0)11-33----3--3-1-333-(0)1p0-1--3-0-1-3--
#cutline#

----------------------------------------------------
----------------------------------------------------
----------------------------------------------------
----------------------------------------------------
-1----------------(0)1--1----------------1----------
--3-1-333-(0)11-33----3--3-1-333-(0)1p0-1--3-0-1-3--
#cutline#
Do you see the vision of a perfect place

----------------------------------------------------
----------------------------------------------------
----------------------------------------------------
----------------------------------------------------
-1----------------(0)1--1----------------1----------
--3-1-333-(0)11-33----3--3-1-333-(0)1p0-1--3-0-1-3--
#cutline#
Does it make you laugh?  Put a smile on your face

----------------------------------------------------
----------------------------------------------------
----------------------------------------------------
----------------------------------------------------
-1----------------(0)1--1----------------1----------
--3-1-333-(0)11-33----3--3-1-333-(0)1p0-1--3-0-1-3--
#cutline#
Do you need a mirror? Do you see it well?

----------------------------------------------------
----------------------------------------------------
----------------------------------------------------
----------------------------------------------------
-1----------------(0)1--1----------------1----------
--3-1-333-(0)11-33----3--3-1-333-(0)1p0-1--3-0-1-3--
#cutline#
Does the hand of God, still toll the bell?

----------------------------------------------------
----------------------------------------------------
----------------------------------------------------
----------------------------------------------------
-1----------------(0)1--1----------------1----------
--3-1-333-(0)11-33----3--3-1-333-(0)1p0-1--3-0-1-3--
#cutline#
There are people laughing They're all laughing at you

----------------------------------------------------
----------------------------------------------------
----------------------------------------------------
----------------------------------------------------
-1----------------(0)1--1----------------1----------
--3-1-333-(0)11-33----3--3-1-333-(0)1p0-1--3-0-1-3--
#cutline#
If only they could see what you're saying is true, oh yeah

----------------------------------------------------
----------------------------------------------------
----------------------------------------------------
----------------------------------------------------
-1----------------(0)1--1----------------1----------
--3-1-333-(0)11-33----3--3-1-333-(0)1p0-1--3-0-1-3--
#cutline#
Still generals fighting, making war on the world.

------------------------------------------------------------------
--3-1-3----------------------3-4-3---1--3-----------------1-1-3---
-3--------------------------3------3--3--1---------------3--------
------------------------------------------------------------------
------------------------------------------------------------------
------------------------------------------------------------------
#cutline#

----------------------------------------------------
----------------------------------------------------
----------------------------------------------------
----------------------------------------------------
-1----------------(0)1--1----------------1----------
--3-1-333-(0)11-33----3--3-1-333-(0)1p0-1--3-0-1-3--
#cutline#
Don't they know?  No, no, no.

----------------------------------
--------------------3-1-3---------
------------------3---------------
----------------------------------
----------------------------------
----------------------------------
#cutline#  

CHOURS
              
-------------------------------------------------------
-------------------------------------------------------
---------------8----------------------8----------------
---------------8----------------------8----------------
-------5-\-1-/-6--------------5-\-1-/-6----------------
-(5\)3----------------------3--------------------------
Guitar 1  
       
-------------------------------------------------------
-------------------------------------------------------
-------7--------8~----4/6~----7-------8~---------------
-----5-----8---------------5------8--------------------
-------------------------------------------------------
-------------------------------------------------------
     no            As the wind in the night blows cold
                 
-------------------------------------------------------
-------------------------------------------------------
---------------8---------------------8-----------------
---------------8---------------------8-----------------
-------5-\-1-/-6-------------5-\-1-/-6-----------------
-----3---------------------3---------------------------
Guitar 1
 
-------------------------------------------------------
-------------------------------------------------------
-------7-------8~------------7-------8~----------------
-----5-----8---------------5-----8---------------------
-------------------------------------------------------
-------------------------------------------------------
Guitar 2 
                 Your eyes are burning

-------------------------------------------------------
-------------------------------------------------------
---------------8--------------------8------------------
---------------8--------------------8------------------
-------5-\-1-/-6-------------5-\1-/-6------------------
-----3---------------------3---------------------------
Guitar 1

-------------------------------------------------------
-------------------------------------------------------
-------7-------8~--4/6~------7------8~-----------------
----5-----8----------------5----8----------------------
-------------------------------------------------------
-------------------------------------------------------
Guitar 2
               And the sands of our time grow old

-------------------------------------
-------------------------------------
-7-x-7-x-7-x-7-x-7-7-x-7-x-7-x-7-----
-7-x-7-x-7-x-7-x-7-7-x-7-x-7-x-7-----
-5-x-5-x-5-x-5-x-5-5-x-5-x-5-x-5-----
-------------------------------------
             Anno          Mundi  Yeah

----------------------------------------------------
----------------------------------------------------
----------------------------------------------------
----------------------------------------------------
-1----------------(0)1--1----------------1----------
--3-1-333-(0)11-33----3--3-1-333-(0)1p0-1--3-0-1-3--
#cutline#

------------------------------------------------------
--3-1h3-------------------------4-3h4-----------------
-3----------------------------3-------3~--------------
------------------------------------------------------
------------------------------------------------------
------------------------------------------------------
       Do you follow the path,     that so many tread

----------------------------------------------------
----------------------------------------------------
----------------------------------------------------
----------------------------------------------------
-1----------------(0)1--1----------------1----------
--3-1-333-(0)11-33----3--3-1-333-(0)1p0-1--3-0-1-3--
#cutline#

------------------------------------------------------
--3-1h3-------------------------3-1h3-----------------
-3-----------------------------3----------------------
------------------------------------------------------
------------------------------------------------------
------------------------------------------------------
       Are you among the blind        so easily lead?

----------------------------------------------------
----------------------------------------------------
----------------------------------------------------
----------------------------------------------------
-1----------------(0)1--1----------------1----------
--3-1-333-(0)11-33----3--3-1-333-(0)1p0-1--3-0-1-3--
#cutline#

----------------------------------------------------------------
--3-1h3------------------------4-3h4----------------------------
-3---------------------------3-------3~-------------------------
----------------------------------------------------------------
----------------------------------------------------------------
----------------------------------------------------------------
       Do you join in the war        do you fight for the cause?

----------------------------------------------------
----------------------------------------------------
----------------------------------------------------
----------------------------------------------------
-1----------------(0)1--1----------------1----------
--3-1-333-(0)11-33----3--3-1-333-(0)1p0-1--3-0-1-3--
#cutline#

-------------------------------------------------------
--3-1h3-------------------------------------3-1h3------
-3-----------------------------------------3-----------
-------------------------------------------------------
-------------------------------------------------------
-------------------------------------------------------
       Depend on another to fight it alone?

#cutline#
-------------------------------------------------------
-------------------------------------------------------
---------------8----------------------8----------------
---------------8----------------------8----------------
-------5-\-1-/-6--------------5-\-1-/-6----------------
-(5\)3----------------------3--------------------------
Guitar 1  
       
-------------------------------------------------------
-------------------------------------------------------
-------7--------8~----4/6~----7-------8~---------------
-----5-----8---------------5------8--------------------
-------------------------------------------------------
-------------------------------------------------------
Guitar 2
     no            As the wind in the night blows cold
                 
-------------------------------------------------------
-------------------------------------------------------
---------------8---------------------8-----------------
---------------8---------------------8-----------------
-------5-\-1-/-6-------------5-\-1-/-6-----------------
-----3---------------------3---------------------------
Guitar 1
 
-------------------------------------------------------
-------------------------------------------------------
-------7-------8~------------7-------8~----------------
-----5-----8---------------5-----8---------------------
-------------------------------------------------------
-------------------------------------------------------
Guitar 2 
                 Your eyes are burning

-------------------------------------------------------
-------------------------------------------------------
---------------8--------------------8------------------
---------------8--------------------8------------------
-------5-\-1-/-6-------------5-\1-/-6------------------
-----3---------------------3---------------------------
Guitar 1

-------------------------------------------------------
-------------------------------------------------------
-------7-------8~--4/6~------7------8~-----------------
----5-----8----------------5----8----------------------
-------------------------------------------------------
-------------------------------------------------------
Guitar 2
               And the sands of our time grow old    no, no, no

----------------------------------------------------------------------------
--------------2-0-2-3---------2----------------0-2-3------------------------
----------------------------------------------------------------------------
----------------------------------------------------------------------------
----------------------------------------------------------------------------
Guitar 1 & 2

#cutline#

Spiritus Sanctus Anno Anno Mundi
Spiritus Sanctus Anno Anno Mundi

----0---------0-1---0--------------0----------0-1---0-------------
---3-3-------3-----3-3------------3-3--------3-----3-3------------
--2---------2-----2--------------2----------2-----2--------3-2-0--
-0----(0)-2/3----0----------0h3p0---(0)-2/3-----0----3-2-0--------
--------------------(0)3-2----------------------------------------
------------------------------------------------------------------
 Can you see me now? Ohhh Can you hear me now? Ohhhoo

----0---------0-1---0--------------0----------0-1---0-------------
---3-3-------3-----3-3------------3-3--------3-----3-3------------
--2---------2-----2--------------2----------2-----2--------3-2-0--
-0----(0)-2/3----0----------0h3p0---(0)-2/3-----0----3-2-0--------
--------------------(0)3-2----------------------------------------
------------------------------------------------------------------
 Can you tell me where's the glory?  Ride the days and sail the nights

----0---------0-1---0--------------0----------0-1---0-------------
---3-3-------3-----3-3------------3-3--------3-----3-3------------
--2---------2-----2--------------2----------2-----2--------3-2-0--
-0----(0)-2/3----0----------0h3p0---(0)-2/3-----0----3-2-0--------
--------------------(0)3-2----------------------------------------
------------------------------------------------------------------
 When its over, you'll find the answer running in the rain

--------------------------------------
--------------------------------------
-3-----------5---------7--------------
-3-----------5---------7--------------
-1-----------3---------5--------------
--------------------------------------
   Truth or thunder?     Life or blame?

----------------------------------------------------
----------------------------------------------------
----------------------------------------------------
----------------------------------------------------
-1----------------(0)1--1----------------1----------
--3-1-333-(0)11-33----3--3-1-333-(0)1p0-1--3-0-1-3--
#cutline#
(Guitar 1)

----------------------------------------------------------------------------
---3-1h3-------------------------------4-3h4--------------------------------
-3------------------------------------3------3~-----------------------------
----------------------------------------------------------------------------
----------------------------------------------------------------------------
----------------------------------------------------------------------------
        There's a hope that's growing        and a vision too
(Guitar 2)
----------------------------------------------------
----------------------------------------------------
----------------------------------------------------
----------------------------------------------------
-1----------------(0)1--1----------------1----------
--3-1-333-(0)11-33----3--3-1-333-(0)1p0-1--3-0-1-3--
#cutline#
(Guitar 1)

----------------------------------------------------------------------------
--3-1h3-----------------------------3-1h3-----------------------------------
-3------------------------------(0)3----------------------------------------
----------------------------------------------------------------------------
----------------------------------------------------------------------------
----------------------------------------------------------------------------
        All those angry hearts            now reach out for you
(Guitar 2)
----------------------------------------------------
----------------------------------------------------
----------------------------------------------------
----------------------------------------------------
-1----------------(0)1--1----------------1----------
--3-1-333-(0)11-33----3--3-1-333-(0)1p0-1--3-0-1-3--
#cutline#
(Guitar 1)

----------------------------------------------------------------------------
--3-1h3----------------------------------4-3h4------------------------------
-3-------------------------------------3-------3~---------------------------
----------------------------------------------------------------------------
----------------------------------------------------------------------------
----------------------------------------------------------------------------
(Guitar 2)

-15-----\12------------------------18-----\15-------------------------------
-18^(20)\12------------------------20^(22)\15-------------------------------
----------------------------------------------------------------------------
----------------------------------------------------------------------------
----------------------------------------------------------------------------
----------------------------------------------------------------------------
(Guitar 3)
           Do you look to the dawn         See a new day begun
----------------------------------------------------
----------------------------------------------------
----------------------------------------------------
----------------------------------------------------
-1----------------(0)1--1----------------1----------
--3-1-333-(0)11-33----3--3-1-333-(0)1p0-1--3-0-1-3--
#cutline#
(Guitar 1)

----------------------------------------------------------------------------
---3-1h3----------------------------------3-1h3-----------------------------
-3---------------------------------------3----------------------------------
----------------------------------------------------------------------------
----------------------------------------------------------------------------
----------------------------------------------------------------------------
(Guitar 2)

-15-----\12-------------------------------------15------15-----------------
-18^(20)\12-------------------------------------18^(20)-17^(20)-(17^20`17)-
---------------------------------------------------------------------------
---------------------------------------------------------------------------
---------------------------------------------------------------------------
---------------------------------------------------------------------------
(Guitar 3)
          No longer the fool the vision is done!
--------------------
-15-17^(20)---------
--------------------
--------------------
--------------------
--------------------
(Guitar 3)
#cutline#
-------------------------------------------------------
-------------------------------------------------------
---------------8----------------------8----------------
---------------8----------------------8----------------
-------5-\-1-/-6--------------5-\-1-/-6----------------
-(5\)3----------------------3--------------------------
(Guitar 1)  
       
-------------------------------------------------------
-------------------------------------------------------
-------7--------8~----4/6~----7-------8~---------------
-----5-----8---------------5------8--------------------
-------------------------------------------------------
-------------------------------------------------------
(Guitar 2)
               As the wind in the night blows cold
                 
-------------------------------------------------------
-------------------------------------------------------
---------------8---------------------8-----------------
---------------8---------------------8-----------------
-------5-\-1-/-6-------------5-\-1-/-6-----------------
-----3---------------------3---------------------------
(Guitar 1)
 
-------------------------------------------------------
-------------------------------------------------------
-------7-------8~------------7-------8~----------------
-----5-----8---------------5-----8---------------------
-------------------------------------------------------
-------------------------------------------------------
(Guitar 2) 
                 Your eyes are burning

-------------------------------------------------------
-------------------------------------------------------
---------------8--------------------8------------------
---------------8--------------------8------------------
-------5-\-1-/-6-------------5-\1-/-6------------------
-----3---------------------3---------------------------
(Guitar 1)

-------------------------------------------------------
-------------------------------------------------------
-------7-------8~--4/6~------7------8~-----------------
----5-----8----------------5----8----------------------
-------------------------------------------------------
-------------------------------------------------------
(Guitar 2)


Important: The song above is NOT stored on the Chordie server. The original song is hosted at www.xguitar.com. Chordie works as a search engine and provides on-the-fly formatting. Chordie does not index songs against artists'/composers' will. To remove this song please click here.

This song is displayed as text-only. Transposing and tuning is only available for chordpro-songs.

Login - add to songbook

Rating click stars to rate

Layout
Accuracy

SHARE PAGE  




You need to log in to post comments