Guitar Tabs, Chords and Lyrics


Feels Good to Me    Black Sabbath











Started:
Finished: 6:45 AM 7/2/98

Black Sabbath - Feels Good to Me

From Black Sabbath's "Tyr" 1990

Tuning Info: 4/4 count, Adagio 66 beats/min., drums with a modeate feel

-13^(15`13)---------------------------------------------------------------------------
---------------------------------------------------------------------------
----------------------------------------------------------------------------
----------------------------------------------------------------------------
----------------------------------------------------------------------------
----------------------------------------------------------------------------
slow release
-----0----0---3-------------------0----0---3--------------------
----3----*-3-*-----3-1--1-0-1----3----*-3-*-----3-1---1-0-1-1---
---2----*---2----0-----*---0----2----*---2-----0-----*-----0----
-0-----0--------2-----*--------0----0---------2-----*-----------
---------------3-----0-----------------------3-----0------------
----------------------------------------------------------------
The chapter is opened, the pages are turned.  The writings say many things,
                                              but who was concerned?

-----0----0---3-------------------0----0---3--------------------
----3----*-3-*-----3-1--1-0-1----3----*-3-*-----3-1---1-0-1-1---
---2----*---2----0-----*---0----2----*---2-----0-----*-----0----
-0-----0--------2-----*--------0----0---------2-----*-----------
---------------3-----0-----------------------3-----0------------
----------------------------------------------------------------
Where can we run to now?  When will we learn?  When it's lost, it's gone
                                                

-------------0---
-------------3---
--------0----2---
--------2--------
--------3--------
-----------------
forever.

-----0----0---3-------------------0----0---3--------------------
----3----*-3-*-----3-1--1-0-1----3----*-3-*-----3-1---1-0-1-1---
---2----*---2----0-----*---0----2----*---2-----0-----*-----0----
-0-----0--------2-----*--------0----0---------2-----*-----------
---------------3-----0-----------------------3-----0------------
----------------------------------------------------------------
For years they told me what I should do.  Down to the places I'd go and who
                                          I should talk to.

-----0----0---3-------------------0----0---3--------------------
----3----*-3-*-----3-1--1-0-1----3----*-3-*-----3-1---1-0-1-1---
---2----*---2----0-----*---0----2----*---2-----0-----*-----0----
-0-----0--------2-----*--------0----0---------2-----*-----------
---------------3-----0-----------------------3-----0------------
----------------------------------------------------------------
But that don't matter no more since I found out the truth and it feels good

-------------0---
-------------3---
--------0----2---
--------2--------
--------3--------
-----------------
me.

----------------------------------------------------------------------------
----------------------------------------------------------------------------
----------------------------------------------------------------------------
----------------------------------------------------------------------------
----------------------------------------------------------------------------
----------------------------------------------------------------------------
----------------------------------------------------------------------------
----------------------------------------------------------------------------
----------------------------------------------------------------------------
----------------------------------------------------------------------------
----------------------------------------------------------------------------
----------------------------------------------------------------------------

----------------------------------------------------------------------------
----------------------------------------------------------------------------
----------------------------------------------------------------------------
----------------------------------------------------------------------------
----------------------------------------------------------------------------
----------------------------------------------------------------------------
----------------------------------------------------------------------------
----------------------------------------------------------------------------
----------------------------------------------------------------------------
----------------------------------------------------------------------------
----------------------------------------------------------------------------
----------------------------------------------------------------------------

----------------------------------------------------------------------------
----------------------------------------------------------------------------
----------------------------------------------------------------------------
----------------------------------------------------------------------------
----------------------------------------------------------------------------
----------------------------------------------------------------------------
----------------------------------------------------------------------------
----------------------------------------------------------------------------
----------------------------------------------------------------------------
----------------------------------------------------------------------------
----------------------------------------------------------------------------
----------------------------------------------------------------------------

----------------------------------------------------------------------------
----------------------------------------------------------------------------
----------------------------------------------------------------------------
----------------------------------------------------------------------------
----------------------------------------------------------------------------
----------------------------------------------------------------------------
----------------------------------------------------------------------------
----------------------------------------------------------------------------
----------------------------------------------------------------------------
----------------------------------------------------------------------------
----------------------------------------------------------------------------
----------------------------------------------------------------------------
LEAD

----------------------------------------------------------
----------------------------------------------------------
-7-12-14/17-16-15\9-----------9\7/9-14-7/9-7/9------------
-*--*--*--*--*--*-------------*-*-*--*-*-*-*-*------------
-5-10-12/15-14-12\7(let fade)-7\5/7-12-5/7-5/7(let fade)--
----------------------------------------------------------
----------------------------------------------------------------------------
--5-4--5-7/9---------------------8^(10)-8-5-55------5-----------------------
-5----------7(slight fade)\(3)-------------7---5h7p5-7-5h7p5----------------
------------------------------------------------------------7---------------
----------------------------------------------------------------------------
----------------------------------------------------------------------------

----------------------------------------------------------------------------
----------------------------------------------------------------------------
----------------------------------------------------------------------------
----------------------------------------------------------------------------
----------------------------------------------------------------------------
----------------------------------------------------------------------------

----------------------------------------------------------------------------
----------------------------------------------------------------------------
----------------------------------------------------------------------------
----------------------------------------------------------------------------
----------------------------------------------------------------------------
----------------------------------------------------------------------------

----------------------------------------------------------------------------
----------------------------------------------------------------------------
----------------------------------------------------------------------------
----------------------------------------------------------------------------
----------------------------------------------------------------------------
----------------------------------------------------------------------------

----------------------------------------------------------------------------
----------------------------------------------------------------------------
----------------------------------------------------------------------------
----------------------------------------------------------------------------
----------------------------------------------------------------------------
----------------------------------------------------------------------------

----------------------------------------------------------------------------
----------------------------------------------------------------------------
----------------------------------------------------------------------------
----------------------------------------------------------------------------
----------------------------------------------------------------------------
----------------------------------------------------------------------------

----------------------------------------------------------------------------
----------------------------------------------------------------------------
----------------------------------------------------------------------------
----------------------------------------------------------------------------
----------------------------------------------------------------------------
----------------------------------------------------------------------------

----------------------------------------------------------------------------
----------------------------------------------------------------------------
----------------------------------------------------------------------------
----------------------------------------------------------------------------
----------------------------------------------------------------------------
----------------------------------------------------------------------------

----------------------------------------------------------------------------
----------------------------------------------------------------------------
----------------------------------------------------------------------------
----------------------------------------------------------------------------
----------------------------------------------------------------------------


Important: The song above is NOT stored on the Chordie server. The original song is hosted at www.xguitar.com. Chordie works as a search engine and provides on-the-fly formatting. Chordie does not index songs against artists'/composers' will. To remove this song please click here.

This song is displayed as text-only. Transposing and tuning is only available for chordpro-songs.

Login - add to songbook

Rating click stars to rate

Layout
Accuracy

SHARE PAGE  




You need to log in to post comments