Guitar Tabs, Chords and Lyrics


Odin's Court    Black Sabbath



7/11/97

Odin's Court/Valhallah

From Black Sabbath's "Tyr" CD, 1990
                                                  
----------------------(2)/3--5-(0)---------------------0------------------
----0-------3-------0-(2)/3--5-(0)--0------3-----------0------------------
---0--(2)/4-0-2-0--0------0-4------0-(2)/4-0-2-0--2-0--0------------------
--2---------------2---------------2------------------2-2------------------
--------------------------------------------------------------------------
--------------------------------------------------------------------------

As you walk alone the night surrounds you like a shroud
The dreams you had were once of love and being proud
Misty horizons block your vision of the world

         -7-10^(12-12-12`10)10p7-10^(12-12-12`10)-7-10^(12)-----
         -------------------------------------------------------
         -------------------------------------------------------
         -------------------------------------------------------
         -------------------------------------------------------
         -------------------------------------------------------

But the Raven's eyes will show you all you need to know.

-5-555-3--2-3-00-0----5-555-3-2-3-00-0----5-555-3-2-3-00-0------
-6-666-5--3-0-11--1---6-666-5-3-0-11--1---6-666-5-3-0-11--1-----
-7-777-4--2-0-22---2--7-777-4-2-0-22---2--7-777-4-2-0-22---2----
-0-000------0-22----2-0-000-----0-22----2-0-000-----0-22----2---
------------2-00----------------2-00----------------2-00--------
------------3-------------------3-------------------3-----------

-5-555-3-2-3-00-0-------
-6-666-5-3-0-11--1------
-7-777-4-2-0-22---2-----
-0-000-----0-22----2----
-----------2-00---------
-----------3------------

-10^(12`10)-7--------------17^(19)------------10^(12)------------
--------------8-10-10--------------17^(19)-----------------------
-----------------------------------------------------------------
-----------------------------------------------------------------
-----------------------------------------------------------------
-----------------------------------------------------------------
Guitar 2 fills  (volume pedal used for fading)    Ohh

-7-10^(12-12-12-12`10)-10p7-10^(12)--------------------------
---------------------------------------10^(12`10)-8~---------
-------------------------------------------------------------
-----------------------------------------------------7/9~----
-------------------------------------------------------------
-------------------------------------------------------------

This time the Masters will lead us by the sword 

And should we fail then all prevails, in Odin's Court.


Important: The song above is NOT stored on the Chordie server. The original song is hosted at www.xguitar.com. Chordie works as a search engine and provides on-the-fly formatting. Chordie does not index songs against artists'/composers' will. To remove this song please click here.

This song is displayed as text-only. Transposing and tuning is only available for chordpro-songs.

Login - add to songbook

Rating click stars to rate

Layout
Accuracy

SHARE PAGE  




You need to log in to post comments