Change

Blind Melon

---------------------------------------------------------------------------


 AAsus4AAsus2AAsus2GGsus4GGsus2
   I don't feel the sun's com-ming out today,   
 GGsus2DDsus2DDsus4DAAsus4AAsus2AAsus2
   I'm staying in, let's gonna find  an - o - ther  way.     
AND PLAY THE SAME THINGY ON THE NEXT LINES...
As I sit here in this misery,
I don't think I'll ever no-no see the sun from here.
ON THE CHORUS:
 D-A-Asus4-A-Asus2-A
 D - G - A - Asus4 - A - Asus2 - A
 D - G - A - Asus4 - A - Asus2 - A
 G - D - A - Asus4 - A - Asus2 - A
 G - D - A - Asus4 - A - Asus2 - A

Chord-Cast (in order of appearance):
A - 002220 G - 3x0003 D - xx0232
Asus4- 002230 Gsus4- 3x0005 Dsus2 - xx0230
Asus2- 002200 Gsus2- 3x0000 Dsus4 - xx0233
^^^
?
I wrote this down when i just started playing, so there might be some
mistakes in it.
 AG
   I don't feel the suns commin out today
 DGA
Stayin in, gonna find a better way.
 AG
 As I sit here in this misery, I don't think
 DGA
I'll ever see (lord) the sun from here.
 DGADGA
    And oh, as I fade away.  They'll all look at me and say.
 DGA
And they'll say, Hey look at him, i'll never live that way.
 GD
But thats ok, Their just afraid of change.
When you feel your life ain't worth livin
You've gotta stand up and take a look arounds you
then a look way up to the sky.
And when your deepest thoughts are broken
keep on dreamin boy, cause when you stop dreamin
its time to die.
And as we play the darts of tomarrow
some ways will work and other ways we'll play.
But I know we can't all stay here forever
so I want to write my words on the face of the sky,
.. and then they'll paint it.
(Verse chords for solo)
And oh as I fade away, they'll all look at me and say,
And they'll say, hey look at him and where he is these days,
When life is hard you have to change.
When life is hard you have to change.
When life is hard you have to change.
The vocals get alittle hard to fit in, in the second verse and chorus.
Listen to the CD, you'll get the general idea. Alot of the time he plays
the A chord hes doing this riff thing. It looks like this in tab:
 E -0-------0--0--0--0-
 B -2-------3--2--0--2-
 G -2-------2--2--2--2-
 D -2-------2--2--2--2-
 A -0-------0--0--0--0-
 E --------------------

Again listen to the CD to here where he does the riff and to get the
feel.
Change
Blind Melon
Solo
Tab from book "Blind Melon"
 |-----5~~~~~~~~~----------------|------------------------------------------|
 |-------------------------------|------------------------------------------|
 |--------------------5--7^(7)^--|---7^(7)p5--7--5~~~~~~--------------------|
 |-----------------7-------------|----------------------------5--7-7^----7^-|
 |-------------------------------|------------------------s7----------------|
 |-------------------------------|------------------------------------------|
 |------------------------------------------|-------------------------------|
 |-------------------------8---8---8--10----|-----------8-10-8--7-8-7s5-----|
 |------------5---5--5-7^---7^--s9---9------|-------------------------------|
 |--7^(7)p5-7---7---------------------------|-------------------------------|
 |------------------------------------------|-------------------------------|
 |------------------------------------------|-------------------------------|
 |------------------------------------------|----------------5----5----5----|
 |------------------------------------------|-------------------------------|
 |---7^(7)p5-7-5--4-5-4s2-4^(4)p2-2-----2-2~|~~~~~~~~~~~~-s5---5----5----5--|
 |------------------------------------4-----|-------------------------------|
 |------------------------------------------|-------------------------------|
 |------------------------------------------|-------------------------------|
 |---7--7--7--7-------12--12------17---17---|--------------20-20-20p17---17-|
 |------------------------------------------|--------------------------20---|
 |s7--7--7--7-----s12---12----s17---17------|-------------------------------|
 |------------------------------------------|-------------------------------|
 |------------------------------------------|-------------------------------|
 |------------------------------------------|-------------------------------|
 |-------17---------------17----------------|------------------------------------------------------|
 |--20^~~--20----------17---20-17----17-----|---17---------------20----------20--------------------|
 |------------17-19^--------------19-----17-|17h19-17----17-17^-----17-17^------19-19^(19)p17--17--|
 |------------------------------------------|---------19-------------------------------------19----|
 |------------------------------------------|------------------------------------------------------|
 |------------------------------------------|------------------------------------------------------|
 |---------------------------------------------------------------|---------------------------------|
 |---------------------------------------------------------------|---------------------------------|
 |----19^(19)p17--19-17-16-17--16s14-16^(16)p14-16--14-----14--14~~~~~~~~~~~~~~~~~~~~------14--16--|
 |------------------------------------------------------16-------|----------------------16---------|
 |---------------------------------------------------------------|---------------------------------|
 |---------------------------------------------------------------|---------------------------------|
 |------------------------------------------|--------------------------------|
 |------------------------------------------|--------------------------------|
 |--16~~~~~~~~~~~~~~~~~~~~~~----16^(16)p14--|-16--14~~~~~~-------14-16-14-14-|
 |------------------------------------------|-----------------16-------------|
 |------------------------------------------|--------------------------------|
 |------------------------------------------|--------------------------------|

by: psylliboy@hotmail.com
"Life's all ups and downs, just don't keep sitting at the bottom"


A Asus2 Asus4 D Dsus2 Dsus4 G Gsus2 Gsus4
variations - click chord images
Transpose chords:
Tuning:
Cool service:
View: Size:
A  A  A
Rating:
Layout:
  • Currently 2/5 Stars.
  • 1
  • 2
  • 3
  • 4
  • 5
 
Accuracy:
  • Currently 3/5 Stars.
  • 1
  • 2
  • 3
  • 4
  • 5
 
click stars to rate
Chordie recommends:
Learn to play guitar with video-based, online guitar lessons at JamPlay.com
Songbook:
Login to add this song to your songbook
Support the artist
Preview/buy this song
MSN Music
Why this non-profit ad?

 
login to add comments/video/corrections

michaelangelo66 (report comment to admin):
you nailed it Shannon always had a soft spot for "Dear Mr. Fantasy"