No Rain

Blind Melon

---------------I---------------I----

-10-----10/12--I---------------I----

---------------I-9-------------I----

---------------I---------------I----

---------------I---------------I----

---------------I---------------I----


 EDE
---------------I---------------I
-----10-9-10---I---------------I
-9----------11-I---9--7--7-9-7-I
---------------I---------------I
---------------I---------------I
---------------I---------------I

End Fill for Figure 2
*********************
D h /\/\
---9-10-9------I
----------10---I
-------------9-I
---------------I
---------------I
---------------I

Chorus 1:
 EEm
 All I can say is that my 
 DDsus4D
 Life is pretty plain   
 AG5EE7EE7E
like watching the puddles gather rain    
 E
And all I can do is just
 DDsus4D
 Pour some tea for two  
 A
And speak my point of view
 GEEE7
But it's not sane  
 E
 It's not sane
***************
**Figure 1 then Figure 2 played with verses and rhythm strum**
***************
Verse 1
 EDE
 I just want someone to say to me
 D
 No oh oh oh
 EDE
 I'll always be there when you wake
**********
**End fill for Figure two then Verse two**
**********
You know I'd like to
Keep my cheeks dry today
So stay with me and I'll have it made.
(I'll have it made)
**Figure 1 once**
2nd Chorus
 E
(And I) don't understand why I
 DDsus4D
 sleep all day.  
 AG5EE7EE7E
and I start to complain that there's no rain.    
 E
 and all I can do is read a
 DDsus4D
 book to stay awake  
 AGE
It rips my life away but it's a great escape   **Lead plays Figure 1
four times with double
E E E whole strums on each
escape escape escape enunciation**
(solo) (email if you want it posted)
3rd Chorus
**This chorus is played with only one strum per chord
except for G which is six eighth note strums with eighth
rests before the first and fourth strum**
Chords as above
All I can say is that my life is pretty plain
You don't like my point of view you think that I'm insane
It's not sane It's not sane
(As the old saying goes....Everybody together!!!)
Second verse same as the first!! (I couldn't resist)
(end solo) w/
 DE
 I'll have it made (I'll have it made)
I'll have it made (I'll have it made)
I'll have it made (I'll have it made)
No no no
You know I'm really gonna really gonna
have it made (I'll have it made)
(I'll have it made) (I'll have it made)
End with Figure one fading.
Thanks for listening....I'm outta here
-Scott Hartig
bodonnel@en.ecn.purdue.ed
Author/Artist: blind melon
Title: no rain
Transcribed by: Saverain
Email: saverain@hotmail.com
This is what it sounds like to me and if you don't
like it E-mail me
you'll have to find the lyrics somewhere else sorry.
I are not to good words
v strum down
^ strum up
b bend r release bend h hammer on
m mute / slide up \ slide down
s strum down slowly T thumb p.m. palm mute
n=not shure play along with cd play slow at first to get right
-|-----------------|---------------------------------|------------------------
-|-----10----------|-10-9-10-------------------------|10-9-10----14h15-14-----
-|-14-----14/16-9--|---------11----------------------|--------11---------14-9-
-|-----------------|-------------14--12--12-14-12-14-|------------------------
-|-----------------|---------------------------------|------------------------
-|-----------------|---------------------------------|------------------------

v ^ v ^ v ^ v ^ m ^ m ^ ^ v ^ v
-|-----------------|---------4---2--2--2--2-2-2-|---------4---2--2--2--2-2-2--
-|--------------5--|----5--5-5-x-3--3--3--3-5-3-|----5--5-5-x-3--3--3--3-3-3--
-|--------------4--|----4--4-4-x-2--2--2--2-2-2-|----4--4-4-x-2--2--2--2-2-2--
-|--------------6--|-------------0--0--0--0-0-0-|-------------0--0--0--0-0-0--
-|--------------7--|-7--------------------------|-7---------------------------
-|--------------0--|----------------------------|-----------------------------

guitar 2 intro s n v v ^ v ^m ^m ^ ^ v ^ n verse >
--|-----------------------------2--2-2-----------------------------0-0--------
--|----5--5-5-5-5-5-5-5-5-5-----3--3-3-x-3--3--5--5-5-----5--5-5-x-5-5--------
--|----4--4-4-4-4-4-4-4-4-4--x--2--2-2-x-2--2--2--2-2-----6--6-6-x-6-6----4---
--|----6--6-6-6-----6-6-6-6--0--0--0-0-x-0--0--0--0-0-----7--7-7-x-7-7-5--5---
--|-7--7------------------7--0--0--------------0--0-0--7--7--7-7-x-7-7-5--5---
--|----------------------------------------------------5-----5-5-x-----3--3---

v v v ^ v ^ ^ ^ v ^ vm v v v ^ v ^m ^m ^ ^ vmTv v v ^ v ^ ^ ^m ^
--------------------------|-0--------------------|-4--4--4-4-x-2--2--2--2---|-
-----0-0--3--3---5--5-5-x-|-0--------------------|-5--5--5-5-x-3--3--3--3-5-|-
-4-x-x-1--1--1-x-4--4-4-x-|-1--------------------|-4--4--4-4-x-2--2--2--2-2-|-
-5-x-x-2--0--0-x-6--6-6-x-|-2--------------------|-6--6--6-6-x-0--0--0--0-0-|-
-5-x-x-2--2--2-x-7--7-7-x-|-2--------------------|-7--7--------0--0--0--0-0-|-
-3-x-0-0------------------|-0--------------------|--------------------------|-

v ^ v v v ^ v ^ ^ v ^ play after2ndtime choru>>v v v ^ v ^m ^m ^ ^ vm
-----|---------|-0----------------------------------|-------------------------
-----|---------|-0-10-10-10/12-5-10-10-10/12-5------|-10--10-10/12----10-9-10-
-----|---------|-1-------------4-------------4------|--------------9----------
-----|---------|-2-------------6-------------6------|-------------------------
-----|---------|-2-------------7-------------7------|-------------------------
-----|---------|-0-------------0-------------0------|-------------------------

verse escape G2 escape G2 esca a ape solo strum E AND D
----------------------------------------------------9-9-9--9-9-9--9-9-9--9-9--
-12------------------12-14--15--14--15--14--15--14-10-9-9-12-9-9-10-9-9-12-9--
----13--14--13-14-13----------------------------------------------------------
------------------------------------------------------------------------------
------------------------------------------------------------------------------
------------------------------------------------------------------------------

 m
-9--9-9-9--9-9-9--9-9-9--9-9-9-10-9-9-9-9-9-12-9-9-9-9-9-14-9-9-9-9-9---------
-9-10-9-9-12-9-9-10-9-9-12-9-9-9--9-9-9-9-9--9-9-9-9-9-9--9-9-9-9-9-9-9/-9\7--
----------------------------------------------------------------------9/------
------------------------------------------------------------------------------
------------------------------------------------------------------------------
------------------------------------------------------------------------------

v ^
------------------------------------9-----9----10--9----12--9-9---------------
-7\-5-5\3-3\2-2/3-3/5-5/7-7/9-9h10----10----10-------10-------10-9b10r9-------
-----------------------------------------------------------------9b10r9--9----
------------------------------------------------------------------------12p9--
------------------------------------------------------------------------------
------------------------------------------------------------------------------

v continue ^ v ^ v ^ ^ v ^ ^ v v v v
---------------------------7----------------------------------------|-0-------
---7b9r7------9b11-9-----7---10p7-----------------------------------|-5-------
-x-7b9r7--7-7-9b11-9--9b----------9-7-9p7---7---------------7-9p7---|-4-------
-x-9b10r9-9-9-----------------------------9---9-7-9p7---9-9-------9-|-6-------
------------------------------------------------------9-------------|-7-------
--------------------------------------------------------------------|-0-------

v ^ ^ v v v s
------0-----------0-----------------0--------------0-----------|--------------
----7-5---------5-5-3-3-------------5--------------5-----------|--------------
----7-6-----6-6-6-6-4-4-x-----------4--------------4-----------|--------------
----7-7-----7-7-7-7-5-5-x-----------6--------------6-----------|--------------
----5-7-----7-7-7-7-5-5-x-2---------7--------------7-----------|--------------
------5-----5-5-----------0---------0--------------0-----------|--------------

s s ^ vm^ vm^ v intro s intro s intro chorus w/intro
-------------|----------------------------------------------------------------
-------------|-9-10-9---------------------------------------------------------
-------------|--------11--9--7--7-9-7-10b11r10-9-12b14r12p10-12-10b12r10p9-10-
-------------|----------------------------------------------------------------
-------------|----------------------------------------------------------------
-------------|----------------------------------------------------------------

part E and D
---------------------------------------------------------12-9--10-9--10-9--10-
----------------10b11r10p9-10-12--10-9--10--9-9-12--10-9-------------10-9--10-
-12b14r12p10-12---------------------------------------------------------------
------------------------------------------------------------------------------
------------------------------------------------------------------------------
------------------------------------------------------------------------------
-9---9-9-9--9-9-9--9-9-9--9-9-9--9-9-9--9-9-9--9-9-9--9-9-9-10-9-9-9-9-9-12-9-
-9--10-9-9-12-9-9-10-9-9-12-9-9-10-9-9-12-9-9-10-9-9-12-9-9--9-9-9-9-9-9--9-9-
------------------------------------------------------------------------------
------------------------------------------------------------------------------
------------------------------------------------------------------------------
------------------------------------------------------------------------------
-9-9-9-9-14-9-9-9-9-9-------7-----------------------------------------------|-
-9-9-9-9--9-9-9-9-9-9-9\--7---10p7---7--------------------------------------|-
----------------------9\-----------9---9-7-9p7---7---------------7-9p7---9--|-
-----------------------------------------------9---9-7-9p7---9-9-------9----|-
-----------------------------------------------------------9----------------|-
----------------------------------------------------------------------------|-
--|--------2---|--------------------------------------------------------------
--|------5-3---|--------------------------------------------------------------
--|-4--4-4-2---|--------------------------------------------------------------
--|-6--6-6-0---|--------------------------------------------------------------
--|-7--7-------|--------------------------------------------------------------
--|------------|--------------------------------------------------------------

v v ^ ^ I'll have it ma a a ade


A D Dsus4 E E7 Em G G5
variations - click chord images
Transpose chords:
Tuning:
Cool service:
View: Size:
A  A  A
Rating:
Layout:
  • Currently 2.3/5 Stars.
  • 1
  • 2
  • 3
  • 4
  • 5
 
Accuracy:
  • Currently 2.4/5 Stars.
  • 1
  • 2
  • 3
  • 4
  • 5
 
click stars to rate
Chordie recommends:
Learn how to play guitar at JamPlay.com
Songbook:
Login to add this song to your songbook
Support the artist
Preview/buy this song
MSN Music
Why this non-profit ad?

 
login to add comments/video/corrections