E8+ E+ A+ B E8+ E+ A+ E5
e|-0-2---4-2------------4-------0---------------5----------------------4-------0---------------5--------------
B|-0------------------5-------0-------0-------2-----0---0------------5-------0-------0-------2-----0---0------
G|----------------4-----------------------------------------------4-------------------------------------------
D|------------4-6---2---------------1---2-4-------------------4-6---2---------------1---2-4-------------------
A|------------------------4-2-----4---------0-----0---0---2-4------------4-2-----4---------0-----0---0---2-4--
E|-0---0------------------------------------------------------------------------------------------------------

 E+A5E5A5E+E+A5E5A5E+
e|-4----4-----5-----7-----5-----4-----------------------4----4-----5-----7-----5-----4---------------7-7-5----
B|-5-5----5-----5-----5-----5-----5---2-4-------2-4-----5-5----5-----5-----5-----5-----5---2-4----------------
G|----------------------------------------4-2-1-----4-2----------------------------------------4-2-1----------
D|------------------------------------------------------------------------------------------------------------
A|------------------------------------------------------------------------------------------------------------
E|-0---0----0-----0-----0-----0-----0-------------------0---0----0-----0-----0-----0-----0--------------------

E8+ E+ A+ B E8+ E+ A+ E+
e|----------------------4-------0---------------5----------------------4-------0---------------5-------------0
B|--------------------5-------0-------0-------2-----0---0------------5-------0-------0-------2-----0---0-----0
G|----------------4-----------------------------------------------4------------------------------------------1
D|------------4-6---2---------------1---2-4-------------------4-6---2---------------1---2-4------------------2
A|------------------------4-2-----4---------0-----0---0---2-4------------4-2-----4---------0-----0---0---2-4-2
E|-----------------------------------------------------------------------------------------------------------0

 E+A5E5A5E+E+A5E5A5E+
e|-4----4-----5-----7-----5-----4-----------------------4----4-----5-----7-----5-----4---------------7-7-5----
B|-5-5----5-----5-----5-----5-----5---2-4-------2-4-----5-5----5-----5-----5-----5-----5---2-4----------------
G|----------------------------------------4-2-1-----4-2----------------------------------------4-2-1----------
D|------------------------------------------------------------------------------------------------------------
A|------------------------------------------------------------------------------------------------------------
E|-0---0----0-----0-----0-----0-----0-------------------0---0----0-----0-----0-----0-----0--------------------

E8+ E+ A+ B E8+ E+ A+
e|----------------------4-------0---------------5----------------------4-------0---------------5--------------
B|--------------------5-------0-------0-------2-----0---0------------5-------0-------0-------2-----0---0------
G|----------------4-----------------------------------------------4-------------------------------------------
D|------------4-6---2---------------1---2-4-------------------4-6---2---------------1---2-4-------------------
A|------------------------4-2-----4---------0-----0---0---2-4------------4-2-----4---------0-----0---0---2-4--
E|------------------------------------------------------------------------------------------------------------

 B+F#+G#+A+B+A+B+E+A+D+E+
e|----------------------------0--0--0--0--0--0--2--0----------------------------------------------------------
B|---------------2-2-----4----2--4--2--4--0--2--3--0----------------------------------------------------------
G|-----------1----------------2--4--2--4--1--2--2--1----------------------------------------------------------
D|-----1-2-4-----------6---6-----4--2--4--2--2--0--2----------------------------------------------------------
A|-2-4------------------------0--0--0--0--2--0--0--2----------------------------------------------------------
E|-------------2-----4-----------0--0--0--0--0--0--0----------------------------------------------------------

 ----
 This tab belongs to me. Do not post it on your page without asking me first.
shannonh@geocities.com






























A+ A5 B+ D+ E+ E5 F#+ G#+
variations - click chord images
Transpose chords:
Tuning:
Cool service:
View: Size:
A  A  A
Rating:
Layout:
  • Currently 3/5 Stars.
  • 1
  • 2
  • 3
  • 4
  • 5
 
Accuracy:
  • Currently 2.7/5 Stars.
  • 1
  • 2
  • 3
  • 4
  • 5
 
click stars to rate
Chordie recommends:
Learn to play this song & others via video guitar lessons at JamPlay.com
Songbook:
Login to add this song to your songbook
Support the artist
Preview/buy this song
MSN Music
Why this non-profit ad?

 
login to add comments/video/corrections