Chordie logo

Shekina    Blindside



Song:Shekina
Artist:Blindside
Album:About A Burning Fire
Tabbed By:Robert Romanos

INTRO/VERSE 0:26 - 0:40 (palm muted)
E|------------------||
B|------------------||
G|------------------||X23
D|------------------||
A|------555---------||
E|------------------||

INTERLUDE 0:41 - 0:47 (palm muted)
E|------------------||
B|------------------||
G|------------------||
D|------------------||X2
A|-5555555544444444-||
E|------------------||

VERSE 0:48 - 1:01 (palm muted)
E|------------------||
B|------------------||
G|------------------||X7
D|------------------||
A|-5555555555-------||
E|------------------||

INTERLUDE 1:02 - 1:15 (palm muted)
E|------------------||
B|------------------||
G|------------------||X4
D|------------------||
A|-5555555544444444-||
E|------------------||

Chorus 1:16 - 1:36
E|--------------------------------------------------------||
B|--------------------------------------------------------||
G|--------------------------------------------------------||
D|-4--2---1-----2--4--------------------------------------||X3
A|-4--2-33-2210-2--4-24321099-----------------------------||
E|-4--2---------2--4--------------------------------------||


Chorus Outro 1:37 - 1:44
E|--------------------------------------------------------||
B|--------------------------------------------------------||
G|--------------------------------------------------------||X1
D|-4--2---1-----2--4--------------------------------------||
A|-4--2-33-2210-2--4-24321011-----------------------------||
E|-4--2---------2--4--------------------------------------||

VERSE 1:45 - 2:05 (palm muted)
E|------------------||
B|------------------||
G|------------------||X13
D|------------------||
A|-55555555---------||
E|------------------||

BRIDGE 2:06 - 2:12 (palm muted)
E|-------------------------------------||
B|-------------------------------------||
G|-------------------------------------||
D|-------------------------------------||X1
A|-55555555444444444333333333444444444-||
E|-------------------------------------||

VERSE 2:13 - 2:26 (palm muted)
E|------------------||
B|------------------||
G|------------------||X23
D|------------------||
A|------555---------||
E|------------------||

BRIDGE 2:27 - 2:40 (palm muted)
E|-------------------------------------||
B|-------------------------------------||
G|-------------------------------------||
D|-------------------------------------||X2
A|-55555555444444444333333333444444444-||
E|-------------------------------------||

Chorus 2:41 - 3:01
E|--------------------------------------------------------||
B|--------------------------------------------------------||
G|--------------------------------------------------------||
D|-4--2---1-----2--4--------------------------------------||X3
A|-4--2-33-2210-2--4-24321099-----------------------------||
E|-4--2---------2--4--------------------------------------||

Chorus Outro 3:02 - 3:08
E|--------------------------------------------------------||
B|--------------------------------------------------------||
G|--------------------------------------------------------||X1
D|-4--2---1-----2--4--------------------------------------||
A|-4--2-33-2210-2--4-24321011-----------------------------||
E|-4--2---------2--4--------------------------------------||



Verse 2 3:12 - 3:32
E|-------------------------4~37765-5~48876-6~5~4~~3211----||
B|--------------------------------------------------------||
G|--------------------------------------------------------||X2
D|-33333-44444-33333-44444--------------------------------||
A|--------------------------------------------------------||
E|--------------------------------------------------------||



Verse 2 Outro 3:33 - 3:40
E|--4~------5~------||
B|------------------||
G|------------------||
D|------------------||
A|------------------||
E|------------------||

Verse 3:41 - 3:56 (palm muted)
E|------------------||
B|------------------||
G|------------------||
D|------------------||X10
A|-5555555----------||
E|------------------||

Interlude 3:57 - 4:03 (palm muted)
E|-------------------------------------||
B|-------------------------------------||
G|-------------------------------------||
D|-------------------------------------||X1
A|-55555555444444444333333333444444444-||
E|-------------------------------------||

Verse 4:04 - 4:16 (palm muted)
E|------------------||
B|------------------||
G|------------------||
D|------------------||X10
A|-5555555----------||
E|------------------||

Interlude 4:16 - 4:31  (palm muted)
E|-------------------------------------||
B|-------------------------------------||
G|-------------------------------------||
D|-------------------------------------||X2
A|-55555555444444444333333333444444444-||
E|-------------------------------------||

Verse 4:32 - 4:46 (palm muted)
E|------------------||
B|------------------||
G|------------------||
D|------------------||X11
A|-55555------------||


Important: The song above is NOT stored on the Chordie server. The original song is hosted at www.xguitar.com. Chordie works as a search engine and provides on-the-fly formatting. Chordie does not index songs against artists/composers will. To remove this song please click here.

This song is displayed as text-only. Transposing and tuning is only available for chordpro-songs.

Login - add to songbook

Rating click stars to rate

Layout
Accuracy

SHARE PAGE  



You need to log in to post comments