Guitar Tabs, Chords and Lyrics


Adam's Song   Blink 182



Song: Adam's Song
Artist: Blink 182
Album: Enema of the State
As tabbed by Joe Muggah

Tuned down a step:
EADGBe becomes DGCFAd

Riff
d--------------------------------------------------------
A--------------------------------------------------------
F--------------------------------------------------------
C---4-0----4-0----4-0----4-0----4-0----4-0----4-0----4-0-
G-2------2------0------0---------------------------------
D-----------------------------3------3------0------3--p0-

Verse (palm muted, each x8)
d--------------------------------------------------------
A--------------------------------------------------------
F-7---------4---------7---------4------------------------
C-7----5----4----5----7----5----4----5-------------------
G-5----5----2----5----5----5----2----5-------------------
D------3---------3---------3---------3-------------------
(I never thought...")

Pre-Chorus 1
d--------------------------------------------------------
A--------------------------------------------------------
F-----0------0------0------0-----------------------------
C---7------7------9------9------4-0----4-0----4-0----4-0-
G-5------5------7------7------2------2-------------------
D-------------------------------------------3------3--p0-
Chorus 1A (Guitar 1)   1B (Guitar 2)  all x8 in both
d---------------------|----------------------------------
A---------------------|----------------------------------
F-7----9--------------|-11----12----11----12-------------
C-x----x----9----5----|--x-----x-----x-----x-------------
G-5----7----x----x----|--9----10-----9----10-------------
D-----------7----3----|----------------------------------
("I never conquered...")

Chorus 2A (Guitar 1)   2B (Guitar 2)  all x8 in both
d---------------------|----------------------------------
A---------------------|----------------------------------
F-7----9--------------|-14----12----11----12-------------
C-7----9----9----5----|--x-----x-----x-----x-------------
G-5----7----9----5----|-12----10-----9----10-------------
D-----------7----3----|----------------------------------
("The world was wide...")

Pre-Chorus 2
d--------------------------------------------------------
A--------------------------------------------------------
F-----0------0------0------0-----------------------------
C---7------7------9------9------4-0----4-0----2-0----2-0-
G-5------5------7------7------2------2-------------------
D-------------------------------------------3------3-----

Bridge A (Guitar 1)
d--------------------------------------------------------
A--------------------------------------------------------
F-----0------0-----------0------0------------------------
C---4------4------4----4------4------4-------------------
G-5------5------5----5------5------5---------------------
D--------------------------------------------------------

Bridge B (Guitar 2)
d--------------------------------------------------------
A-7-------------7-------7---------------7----------------
F----7-----7------7---------7--------7-----7-----7-------
C-------7-----------7---------7---7-----------7----------
G--------------------------------------------------------
D--------------------------------------------------------

Solo (Piano arranged for Guitar 2)
d----10-12-10------10-12-10---15-14--10-----10-12-10-----
A-10-----------10------------------------10--------------
F-----------------------------------------------------12-
C--------------------------------------------------------
G--------------------------------------------------------
D--------------------------------------------------------

(continued)
d----10-12-----10----14------15---17---------------------
A-10-------10-----10----10-------------------------------
F--------------------------------------------------------
C--------------------------------------------------------
G--------------------------------------------------------
D--------------------------------------------------------

Bridge C (Guitar 2)
d--------------------------------------------------------
A-----3-----3-----3------3------3------3-----------------
F--------------------------------------------------------
C---4-----4-----4------4------4------4-------------------
G-5-----5-----5------5------5------5---------------------
D--------------------------------------------------------

Outro A Guitar 1)  B (Guitar 2)
d-----------------|--------------------------------------
A-----------------|--------------------------------------
F------7----------|-----14-------------------------------
C------7----------|------x-------------------------------
G------5----------|-----12-------------------------------
D-----------------|--------------------------------------
Riff
Verse
Pre-Chorus 1
Chorus 1A, 1B
Chorus 2A, 2B
Riff
Verse
Pre-Chorus 2
Chorus 1A, 1B
Chorus 2A, 2B
Bridge A
Bridge A, B
Bridge A, Solo
Bridge C
Chorus 2A, 2B
Outro A, B

Probably the best Blink song out there. It's kind of
wierd that they dropped the tuning a step too.


Important: The song above is NOT stored on the Chordie server. The original song is hosted at www.xguitar.com. Chordie works as a search engine and provides on-the-fly formatting. Chordie does not index songs against artists'/composers' will. To remove this song please click here.

This song is displayed as text-only. Transposing and tuning is only available for chordpro-songs.

Login - add to songbook

Rating click stars to rate

Layout
Accuracy

SHARE PAGE  




You need to log in to post comments