Guitar Tabs, Chords and Lyrics


Aliens Exist  Blink 182

E|----------------------------------------------------------------|


B|---------------------------------------------------------------|


G|-4-4-4-4-4-4-4-4--6-6-6-6-8-8-8-8---4-------------------|


D|-4-4-4-4-4-4-4-4--6-6-6-6-8-8-8-8---x-------------------|


A|-2-2-2-2-2-2-2-2--4-4-4-4-6-6-6-6---2--let-ring.....----|


E|----------------------------------------------------------------|

[B5]Hey mom, there's [F#5]something in the [G#5]backroom, [E5]
[B5]I hope it's not the[F#5] creatures from ab[G#5]ove. [E5]
[B5]You used to read me sto[C#5]ries,
[G#5]as if my dreams were bor[E5]ing,
[B5]we all know consp[F#5]iracies are dumb[G#5]. [E5]
Rythm Figure 1
E|-----------------------------------------------------------|
B|-----------------------------------------------------------|
G|-4--4-4--4-----------------------------------------------|
D|-4--4-4--4--2--2-2-2--2---6-6--6--6---2--2-2-2-----|
A|-2--2-2--2--2--2-2-2--2---6-6--6--6---2--2-2-2-----|
E|------------0--0-0-0--0---4-4--4--4---0--0-0-0-----|

After a pick scrape, play Rythm Figure 1, 2x then
play the second verse palm muted.
Here's the rythm for the second and third verse:
E|----------------------------------------------------------------------|
B|----------------------------------------------------------------------|
G|-4-4-4-4-4-4-4-4------------------------------------------------------|
D|-4-4-4-4-4-4-4-4--4-4-4-4-4-4-4-4--6-6-6-6-6-6-6-6--2-2-2-2-2-2-2-2---|
A|-2-2-2-2-2-2-2-2--4-4-4-4-4-4-4-4--6-6-6-6-6-6-6-6--2-2-2-2-2-2-2-2---|
E|------------------2-2-2-2-2-2-2-2--4-4-4-4-4-4-4-4--0-0-0-0-0-0-0-0---|play that 2x then:

p.m.................................................................
E|-----------------------------------------------------------------------|
B|-----------------------------------------------------------------------|
G|-4-4-4-4-4-4-4-4--6-6-6-6-6-6-6-6--------------------------------------|
D|-4-4-4-4-4-4-4-4--6-6-6-6-6-6-6-6--6-6-6-6-6-6-6-6---2-2-2-2-2-2-2-2---|
A|-2-2-2-2-2-2-2-2--4-4-4-4-4-4-4-4--6-6-6-6-6-6-6-6---2-2-2-2-2-2-2-2---|
E|-----------------------------------4-4-4-4-4-4-4-4---0-0-0-0-0-0-0-0---|

.......................................................................
E|--------------------------------------------------------|
B|--------------------------------------------------------|
G|-4-4-4-4-4-4-4-4----------------------------------------|
D|-4-4-4-4-4-4-4-4--4-4-4-4-4-4-4-4--6-6-6-6-6-6-6-6------|
A|-2-2-2-2-2-2-2-2--4-4-4-4-4-4-4-4--6-6-6-6-6-6-6-6------|
E|------------------2-2-2-2-2-2-2-2--4-4-4-4-4-4-4-4------|

p.m.....................................................
Verse 2:
[B5]What if people [F#5]knew that these were [G#5]real?[E5]
[B5]I'd leave my close[F#5]t door open all [G#5]night.[E5]
[B5]I know the CI[C#5]A would say
[G#5]what you hear is a[E5]ll heresey.
[B5]I wish someone would [F#5]tell me what was r[G#5]ight.
Riff 1
E|--------------------------------------------------------|
B|--------------------------------------------------------|
G|--------------------------------------------------------|
D|-1-1---1-1---1-1---1-1----2-2---2-2---2-2---2-2---------|
A|-----2-----2-----2-----2------2-----2-----2-----2-------|
E|--------------------------------------------------------|

p.m.................................................
Chorus:
[B5]Up all night lo[F#5]ng
and there's[B5] something very wron[F#5]g. And I
Play Riff 1 over:
know it must be late,
been gone since yesterday.
[F#5]I'm not [E5]like you g[B5]uys,
[F#5]I'm not [E5]like you.
Play Rythm Figure 1, 2x
Verse 3 is the same as verse 2 except another guitar plays Riff 2 over it.
Riff 2
E|-------------------------------------|
B|-------------------------------------|
G|-------------8-8---------------------|
D|-8-9-9-8-9-9-----9--9-8-9-9--8-9-9---|
A|-------------------------------------|
E|-------------------------------------|

[B5]I'm still a sk[F#5]eptic yes you know[G#5] me,[E5]
[B5]been best friends and [F#5]will be until we [G#5]die.[E5]
[B5]But I got an injec[C#5]tion,
[G#5]a fear from the abd[E5]uction,
[B5]and my best friend t[F#5]hinks i'm just telling[G#5] lies.
[E5]Alright.
Chorus
[B5]Up all night lo[F#5]ng
and there's[B5] something very wron[F#5]g. And I
Play Riff 1 over:
know it must be late,
been gone since yesterday.
[F#5]I'm not [E5]like you g[B5]uys,
[F#5]I'm not [E5]like you.
Then it goes into the bridge.
One guitar just plays this a couple of times:
E|---------------------------------------|
B|---------------------------------------|
G|-4--4-4--4--4-4--4-4--4-4--4-----------|
D|-x--x-x--x--x-x--x-x--x-x--x-----------|
A|-2--2-2--2--2-2--2-2--2-2--2-----------|
E|---------------------------------------|

Then another guitar comes and plays:
E|---------------------------------------------------------------------------------------------|
B|---------------------------------------------------------------------------------------------|
G|-8--8-8--8--8-8--8-8--8-8--8-\-6--6-6--6--6-6--6-6--6-6--6-/-9--9-9--9--9-9--9-9--9-9--9-\---|
D|-x--x-x--x--x-x--x-x--x-x--x-\-x--x-x--x--x-x--x-x--x-x--x-/-x--x-x--x--x-x--x-x--x-x--x-\---|
A|-6--6-6--6--6-6--6-6--6-6--6-\-4--4-4--4--4-4--4-4--4-4--4-/-7--7-7--7--7-7--7-7--7-7--7-\---|
E|---------------------------------------------------------------------------------------------|
E|---------------------------------------|
B|---------------------------------------|
G|-8--8-8--8--8-8--8-8--8-8--8-----------|
D|-x--x-x--x--x-x--x-x--x-x--x-----------|
A|-6--6-6--6--6-6--6-6--6-6--6-----------|
E|---------------------------------------|

[G#5]Dark and scary, [F#5]ordinary, e[E5]xplanation, [B5]informa[F#5]tion.
[G#5]Nice to know ya', [F#5]paranoia. W[E5]here's my mother? [B5]By my fat[F#5]her.
When he starts to say "Nice to know..." then another guitar plays someting like this:
E|-------------------------------------------------------------------------------|
B|-------------------------------------------------------------------------------|
G|-8--8--8--8--8--8--8--8--8---6--6--6--6--6--6--6--6---9--9--9--9--9--9--9--9---|
D|-x--x--x--x--x--x--x--x--x---x--x--x--x--x--x--x--x---x--x--x--x--x--x--x--x---|
A|-6--6--6--6--6--6--6--6--6---4--4--4--4--4--4--4--4---7--7--7--7--7--7--7--7---|
E|-------------------------------------------------------------------------------|
E|-------------------------------|
B|-------------------------------|
G|-8--8--8--8---6--6--6--6-------|
D|-x--x--x--x---x--x--x--x-------|
A|-6--6--6--6---4--4--4--4-------|
E|-------------------------------|

[B5]Up all night lo[F#5]ng
and there's[B5] something very wron[F#5]g. And I
Play Riff 1 over:
know it must be late,
been gone since yesterday.
[F#5]I'm not l[E5]ike you gu[B5]ys,
[F#5]Swell maje[E5]stic lies[B5].

Important: The song above is NOT stored on the Chordie server. The original song is hosted at www.xguitar.com. Chordie works as a search engine and provides on-the-fly formatting. Chordie does not index songs against artists'/composers' will. To remove this song please click here.

Text color:
Chord color:
Chord grids: 
Font size:    
Page size: 

B5 C#5 E5 F#5 G#5
variations - click chord images

Login - add to songbook

Transpose chords

Tuning

Rating click stars to rate

Layout
Accuracy

SHARE PAGE  




You need to log in to post comments